  0
SECTION
  2
HEADER
  9
$ACADVER
  1
AC1024
  9
$ACADMAINTVER
 70
     6
  9
$DWGCODEPAGE
  3
ANSI_1250
  9
$LASTSAVEDBY
  1
Marcin
  9
$INSBASE
 10
0.0
 20
0.0
 30
0.0
  9
$EXTMIN
 10
-58.54924346957844
 20
1.838294815747986
 30
0.0
  9
$EXTMAX
 10
296.9225156842271
 20
305.4193937496317
 30
0.0
  9
$LIMMIN
 10
0.0
 20
0.0
  9
$LIMMAX
 10
420.0
 20
297.0
  9
$ORTHOMODE
 70
     0
  9
$REGENMODE
 70
     1
  9
$FILLMODE
 70
     1
  9
$QTEXTMODE
 70
     0
  9
$MIRRTEXT
 70
     0
  9
$LTSCALE
 40
1.0
  9
$ATTMODE
 70
     1
  9
$TEXTSIZE
 40
2.5
  9
$TRACEWID
 40
1.0
  9
$TEXTSTYLE
  7
Standard
  9
$CLAYER
  8
0
  9
$CELTYPE
  6
ByLayer
  9
$CECOLOR
 62
   256
  9
$CELTSCALE
 40
1.0
  9
$DISPSILH
 70
     0
  9
$DIMSCALE
 40
1.0
  9
$DIMASZ
 40
2.5
  9
$DIMEXO
 40
0.625
  9
$DIMDLI
 40
3.75
  9
$DIMRND
 40
0.0
  9
$DIMDLE
 40
0.0
  9
$DIMEXE
 40
1.25
  9
$DIMTP
 40
0.0
  9
$DIMTM
 40
0.0
  9
$DIMTXT
 40
2.5
  9
$DIMCEN
 40
2.5
  9
$DIMTSZ
 40
0.0
  9
$DIMTOL
 70
     0
  9
$DIMLIM
 70
     0
  9
$DIMTIH
 70
     0
  9
$DIMTOH
 70
     0
  9
$DIMSE1
 70
     0
  9
$DIMSE2
 70
     0
  9
$DIMTAD
 70
     1
  9
$DIMZIN
 70
     8
  9
$DIMBLK
  1

  9
$DIMASO
 70
     1
  9
$DIMSHO
 70
     1
  9
$DIMPOST
  1

  9
$DIMAPOST
  1

  9
$DIMALT
 70
     0
  9
$DIMALTD
 70
     3
  9
$DIMALTF
 40
0.03937007874016
  9
$DIMLFAC
 40
1.0
  9
$DIMTOFL
 70
     1
  9
$DIMTVP
 40
0.0
  9
$DIMTIX
 70
     0
  9
$DIMSOXD
 70
     0
  9
$DIMSAH
 70
     0
  9
$DIMBLK1
  1

  9
$DIMBLK2
  1

  9
$DIMSTYLE
  2
ISO-25
  9
$DIMCLRD
 70
     0
  9
$DIMCLRE
 70
     0
  9
$DIMCLRT
 70
     0
  9
$DIMTFAC
 40
1.0
  9
$DIMGAP
 40
0.625
  9
$DIMJUST
 70
     0
  9
$DIMSD1
 70
     0
  9
$DIMSD2
 70
     0
  9
$DIMTOLJ
 70
     0
  9
$DIMTZIN
 70
     8
  9
$DIMALTZ
 70
     0
  9
$DIMALTTZ
 70
     0
  9
$DIMUPT
 70
     0
  9
$DIMDEC
 70
     2
  9
$DIMTDEC
 70
     2
  9
$DIMALTU
 70
     2
  9
$DIMALTTD
 70
     3
  9
$DIMTXSTY
  7
Standard
  9
$DIMAUNIT
 70
     0
  9
$DIMADEC
 70
     0
  9
$DIMALTRND
 40
0.0
  9
$DIMAZIN
 70
     0
  9
$DIMDSEP
 70
    44
  9
$DIMATFIT
 70
     3
  9
$DIMFRAC
 70
     0
  9
$DIMLDRBLK
  1

  9
$DIMLUNIT
 70
     2
  9
$DIMLWD
 70
    -2
  9
$DIMLWE
 70
    -2
  9
$DIMTMOVE
 70
     0
  9
$DIMFXL
 40
1.0
  9
$DIMFXLON
 70
     0
  9
$DIMJOGANG
 40
0.7853981633974483
  9
$DIMTFILL
 70
     0
  9
$DIMTFILLCLR
 70
     0
  9
$DIMARCSYM
 70
     0
  9
$DIMLTYPE
  6

  9
$DIMLTEX1
  6

  9
$DIMLTEX2
  6

  9
$DIMTXTDIRECTION
 70
     0
  9
$LUNITS
 70
     2
  9
$LUPREC
 70
     3
  9
$SKETCHINC
 40
1.0
  9
$FILLETRAD
 40
1.5
  9
$AUNITS
 70
     0
  9
$AUPREC
 70
     0
  9
$MENU
  1
.
  9
$ELEVATION
 40
0.0
  9
$PELEVATION
 40
0.0
  9
$THICKNESS
 40
0.0
  9
$LIMCHECK
 70
     0
  9
$CHAMFERA
 40
10.0
  9
$CHAMFERB
 40
10.0
  9
$CHAMFERC
 40
20.0
  9
$CHAMFERD
 40
0.0
  9
$SKPOLY
 70
     0
  9
$TDCREATE
 40
2455022.720692847
  9
$TDUCREATE
 40
2455022.637359514
  9
$TDUPDATE
 40
2456512.415982708
  9
$TDUUPDATE
 40
2456512.332649375
  9
$TDINDWG
 40
0.0020102662
  9
$TDUSRTIMER
 40
2456512.330650856
  9
$USRTIMER
 70
     1
  9
$ANGBASE
 50
0.0
  9
$ANGDIR
 70
     0
  9
$PDMODE
 70
     0
  9
$PDSIZE
 40
0.0
  9
$PLINEWID
 40
0.0
  9
$SPLFRAME
 70
     0
  9
$SPLINETYPE
 70
     6
  9
$SPLINESEGS
 70
     8
  9
$HANDSEED
  5
78E
  9
$SURFTAB1
 70
     6
  9
$SURFTAB2
 70
     6
  9
$SURFTYPE
 70
     6
  9
$SURFU
 70
     6
  9
$SURFV
 70
     6
  9
$UCSBASE
  2

  9
$UCSNAME
  2

  9
$UCSORG
 10
0.0
 20
0.0
 30
0.0
  9
$UCSXDIR
 10
1.0
 20
0.0
 30
0.0
  9
$UCSYDIR
 10
0.0
 20
1.0
 30
0.0
  9
$UCSORTHOREF
  2

  9
$UCSORTHOVIEW
 70
     0
  9
$UCSORGTOP
 10
0.0
 20
0.0
 30
0.0
  9
$UCSORGBOTTOM
 10
0.0
 20
0.0
 30
0.0
  9
$UCSORGLEFT
 10
0.0
 20
0.0
 30
0.0
  9
$UCSORGRIGHT
 10
0.0
 20
0.0
 30
0.0
  9
$UCSORGFRONT
 10
0.0
 20
0.0
 30
0.0
  9
$UCSORGBACK
 10
0.0
 20
0.0
 30
0.0
  9
$PUCSBASE
  2

  9
$PUCSNAME
  2

  9
$PUCSORG
 10
0.0
 20
0.0
 30
0.0
  9
$PUCSXDIR
 10
1.0
 20
0.0
 30
0.0
  9
$PUCSYDIR
 10
0.0
 20
1.0
 30
0.0
  9
$PUCSORTHOREF
  2

  9
$PUCSORTHOVIEW
 70
     0
  9
$PUCSORGTOP
 10
0.0
 20
0.0
 30
0.0
  9
$PUCSORGBOTTOM
 10
0.0
 20
0.0
 30
0.0
  9
$PUCSORGLEFT
 10
0.0
 20
0.0
 30
0.0
  9
$PUCSORGRIGHT
 10
0.0
 20
0.0
 30
0.0
  9
$PUCSORGFRONT
 10
0.0
 20
0.0
 30
0.0
  9
$PUCSORGBACK
 10
0.0
 20
0.0
 30
0.0
  9
$USERI1
 70
     0
  9
$USERI2
 70
     0
  9
$USERI3
 70
     0
  9
$USERI4
 70
     0
  9
$USERI5
 70
     0
  9
$USERR1
 40
0.0
  9
$USERR2
 40
0.0
  9
$USERR3
 40
0.0
  9
$USERR4
 40
0.0
  9
$USERR5
 40
0.0
  9
$WORLDVIEW
 70
     1
  9
$SHADEDGE
 70
     3
  9
$SHADEDIF
 70
    70
  9
$TILEMODE
 70
     1
  9
$MAXACTVP
 70
    64
  9
$PINSBASE
 10
0.0
 20
0.0
 30
0.0
  9
$PLIMCHECK
 70
     0
  9
$PEXTMIN
 10
1.000000000000000E+20
 20
1.000000000000000E+20
 30
1.000000000000000E+20
  9
$PEXTMAX
 10
-1.000000000000000E+20
 20
-1.000000000000000E+20
 30
-1.000000000000000E+20
  9
$PLIMMIN
 10
0.0
 20
0.0
  9
$PLIMMAX
 10
0.0
 20
0.0
  9
$UNITMODE
 70
     0
  9
$VISRETAIN
 70
     1
  9
$PLINEGEN
 70
     0
  9
$PSLTSCALE
 70
     1
  9
$TREEDEPTH
 70
  3020
  9
$CMLSTYLE
  2
Standard
  9
$CMLJUST
 70
     0
  9
$CMLSCALE
 40
20.0
  9
$PROXYGRAPHICS
 70
     1
  9
$MEASUREMENT
 70
     1
  9
$CELWEIGHT
370
    -1
  9
$ENDCAPS
280
     0
  9
$JOINSTYLE
280
     0
  9
$LWDISPLAY
290
     0
  9
$INSUNITS
 70
     4
  9
$HYPERLINKBASE
  1

  9
$STYLESHEET
  1

  9
$XEDIT
290
     1
  9
$CEPSNTYPE
380
     0
  9
$PSTYLEMODE
290
     1
  9
$FINGERPRINTGUID
  2
{EC6BB858-51AA-46EC-B484-6C9CC7AB3E2E}
  9
$VERSIONGUID
  2
{FAEB1C32-E019-11D5-929B-00C0DF256EC4}
  9
$EXTNAMES
290
     1
  9
$PSVPSCALE
 40
0.0
  9
$OLESTARTUP
290
     0
  9
$SORTENTS
280
   127
  9
$INDEXCTL
280
     0
  9
$HIDETEXT
280
     1
  9
$XCLIPFRAME
280
     0
  9
$HALOGAP
280
     0
  9
$OBSCOLOR
 70
   257
  9
$OBSLTYPE
280
     0
  9
$INTERSECTIONDISPLAY
280
     0
  9
$INTERSECTIONCOLOR
 70
   257
  9
$DIMASSOC
280
     2
  9
$PROJECTNAME
  1

  9
$CAMERADISPLAY
290
     0
  9
$LENSLENGTH
 40
50.0
  9
$CAMERAHEIGHT
 40
0.0
  9
$STEPSPERSEC
 40
2.0
  9
$STEPSIZE
 40
6.0
  9
$3DDWFPREC
 40
2.0
  9
$PSOLWIDTH
 40
5.0
  9
$PSOLHEIGHT
 40
80.0
  9
$LOFTANG1
 40
1.570796326794897
  9
$LOFTANG2
 40
1.570796326794897
  9
$LOFTMAG1
 40
0.0
  9
$LOFTMAG2
 40
0.0
  9
$LOFTPARAM
 70
     7
  9
$LOFTNORMALS
280
     1
  9
$LATITUDE
 40
37.795
  9
$LONGITUDE
 40
-122.394
  9
$NORTHDIRECTION
 40
0.0
  9
$TIMEZONE
 70
 -8000
  9
$LIGHTGLYPHDISPLAY
280
     1
  9
$TILEMODELIGHTSYNCH
280
     1
  9
$SOLIDHIST
280
     1
  9
$SHOWHIST
280
     1
  9
$DWFFRAME
280
     2
  9
$DGNFRAME
280
     2
  9
$REALWORLDSCALE
290
     1
  9
$INTERFERECOLOR
 62
   256
  9
$CSHADOW
280
     0
  9
$SHADOWPLANELOCATION
 40
0.0
  0
ENDSEC
  0
SECTION
  2
CLASSES
  0
CLASS
  1
ACDBDICTIONARYWDFLT
  2
AcDbDictionaryWithDefault
  3
ObjectDBX Classes
 90
        0
 91
        5
280
     0
281
     0
  0
CLASS
  1
VISUALSTYLE
  2
AcDbVisualStyle
  3
ObjectDBX Classes
 90
     4095
 91
        5
280
     0
281
     0
  0
CLASS
  1
TABLESTYLE
  2
AcDbTableStyle
  3
ObjectDBX Classes
 90
     4095
 91
        5
280
     0
281
     0
  0
CLASS
  1
DICTIONARYVAR
  2
AcDbDictionaryVar
  3
ObjectDBX Classes
 90
        0
 91
        4
280
     0
281
     0
  0
CLASS
  1
SCALE
  2
AcDbScale
  3
ObjectDBX Classes
 90
     1153
 91
        5
280
     0
281
     0
  0
CLASS
  1
CELLSTYLEMAP
  2
AcDbCellStyleMap
  3
ObjectDBX Classes
 90
     1152
 91
        4
280
     0
281
     0
  0
CLASS
  1
RASTERVARIABLES
  2
AcDbRasterVariables
  3
ISM
 90
        0
 91
        5
280
     0
281
     0
  0
CLASS
  1
MATERIAL
  2
AcDbMaterial
  3
ObjectDBX Classes
 90
     1153
 91
        5
280
     0
281
     0
  0
CLASS
  1
DIMASSOC
  2
AcDbDimAssoc
  3
"AcDbDimAssoc|Product Desc:     AcDim ARX App For Dimension|Company:          Autodesk, Inc.|WEB Address:      www.autodesk.com"
 90
        0
 91
        4
280
     0
281
     0
  0
CLASS
  1
SORTENTSTABLE
  2
AcDbSortentsTable
  3
ObjectDBX Classes
 90
        0
 91
        4
280
     0
281
     0
  0
CLASS
  1
SUN
  2
AcDbSun
  3
SCENEOE
 90
     1153
 91
        5
280
     0
281
     0
  0
ENDSEC
  0
SECTION
  2
TABLES
  0
TABLE
  2
VPORT
  5
8
330
0
100
AcDbSymbolTable
 70
     1
  0
VPORT
  5
29
330
8
100
AcDbSymbolTableRecord
100
AcDbViewportTableRecord
  2
*Active
 70
     0
 10
0.0
 20
0.0
 11
1.0
 21
1.0
 12
514.5637840800294
 22
209.897260835508
 13
0.0
 23
0.0
 14
10.0
 24
10.0
 15
10.0
 25
10.0
 16
0.0
 26
0.0
 36
1.0
 17
-134.1869158878496
 27
0.0
 37
0.0
 40
601.8749999999449
 41
1.97323600973236
 42
50.0
 43
0.0
 44
0.0
 50
0.0
 51
0.0
 71
    16
 72
  1000
 73
     1
 74
     3
 75
     0
 76
     0
 77
     0
 78
     0
281
     0
 65
     1
110
0.0
120
0.0
130
0.0
111
1.0
121
0.0
131
0.0
112
0.0
122
1.0
132
0.0
 79
     0
146
0.0
348
2F
 60
     3
 61
     5
292
     1
282
     1
141
0.0
142
0.0
 63
   256
361
63D
  0
ENDTAB
  0
TABLE
  2
LTYPE
  5
5
330
0
100
AcDbSymbolTable
 70
     2
  0
LTYPE
  5
14
330
5
100
AcDbSymbolTableRecord
100
AcDbLinetypeTableRecord
  2
ByBlock
 70
     0
  3

 72
    65
 73
     0
 40
0.0
  0
LTYPE
  5
15
330
5
100
AcDbSymbolTableRecord
100
AcDbLinetypeTableRecord
  2
ByLayer
 70
     0
  3

 72
    65
 73
     0
 40
0.0
  0
LTYPE
  5
16
330
5
100
AcDbSymbolTableRecord
100
AcDbLinetypeTableRecord
  2
Continuous
 70
     0
  3
Solid line
 72
    65
 73
     0
 40
0.0
  0
LTYPE
  5
6D8
330
5
100
AcDbSymbolTableRecord
100
AcDbLinetypeTableRecord
  2
CENTER_per1_scale0.021805
 70
     0
  3

 72
    83
 73
     5
 40
1.800000000000011
 49
0.6923076923076965
 74
     0
 49
-0.1384615384615393
 74
     0
 49
0.1384615384615393
 74
     0
 49
-0.1384615384615393
 74
     0
 49
0.6923076923076965
 74
     0
  0
ENDTAB
  0
TABLE
  2
LAYER
  5
2
102
{ACAD_XDICTIONARY
360
559
102
}
330
0
100
AcDbSymbolTable
 70
     3
  0
LAYER
  5
10
330
2
100
AcDbSymbolTableRecord
100
AcDbLayerTableRecord
  2
0
 70
     0
 62
     7
  6
Continuous
370
    -3
390
F
347
75
  0
LAYER
  5
7B
330
2
100
AcDbSymbolTableRecord
100
AcDbLayerTableRecord
  2
Defpoints
 70
     0
 62
     2
  6
Continuous
290
     0
370
    -3
390
F
347
75
  0
LAYER
  5
6D6
330
2
100
AcDbSymbolTableRecord
100
AcDbLayerTableRecord
  2
Rzuty 2D
 70
     0
 62
     7
  6
Continuous
370
    -3
390
F
347
75
  0
ENDTAB
  0
TABLE
  2
STYLE
  5
3
330
0
100
AcDbSymbolTable
 70
     1
  0
STYLE
  5
11
330
3
100
AcDbSymbolTableRecord
100
AcDbTextStyleTableRecord
  2
Standard
 70
     0
 40
0.0
 41
1.0
 50
0.0
 71
     0
 42
2.5
  3
txt
  4

  0
ENDTAB
  0
TABLE
  2
VIEW
  5
6
330
0
100
AcDbSymbolTable
 70
     0
  0
ENDTAB
  0
TABLE
  2
UCS
  5
7
330
0
100
AcDbSymbolTable
 70
     0
  0
ENDTAB
  0
TABLE
  2
APPID
  5
9
330
0
100
AcDbSymbolTable
 70
     1
  0
APPID
  5
12
330
9
100
AcDbSymbolTableRecord
100
AcDbRegAppTableRecord
  2
ACAD
 70
     0
  0
ENDTAB
  0
TABLE
  2
DIMSTYLE
  5
A
330
0
100
AcDbSymbolTable
 70
     1
100
AcDbDimStyleTable
  0
DIMSTYLE
105
27
330
A
100
AcDbSymbolTableRecord
100
AcDbDimStyleTableRecord
  2
ISO-25
 70
     0
 41
2.5
 42
0.625
 43
3.75
 44
1.25
 73
     0
 74
     0
 77
     1
 78
     8
140
2.5
141
2.5
143
0.03937007874016
147
0.625
171
     3
172
     1
178
     0
271
     2
272
     2
274
     3
278
    44
283
     0
284
     8
340
11
  0
ENDTAB
  0
TABLE
  2
BLOCK_RECORD
  5
1
330
0
100
AcDbSymbolTable
 70
     6
  0
BLOCK_RECORD
  5
1F
102
{ACAD_XDICTIONARY
360
11B
102
}
330
1
100
AcDbSymbolTableRecord
100
AcDbBlockTableRecord
  2
*Model_Space
340
22
 70
     0
280
     1
281
     0
  0
BLOCK_RECORD
  5
1B
330
1
100
AcDbSymbolTableRecord
100
AcDbBlockTableRecord
  2
*Paper_Space
340
1E
 70
     0
280
     1
281
     0
  0
BLOCK_RECORD
  5
23
330
1
100
AcDbSymbolTableRecord
100
AcDbBlockTableRecord
  2
*Paper_Space0
340
26
 70
     0
280
     1
281
     0
  0
BLOCK_RECORD
  5
43B
330
1
100
AcDbSymbolTableRecord
100
AcDbBlockTableRecord
  2
*D1
340
0
 70
     0
280
     1
281
     0
  0
BLOCK_RECORD
  5
44C
330
1
100
AcDbSymbolTableRecord
100
AcDbBlockTableRecord
  2
*D2
340
0
 70
     0
280
     1
281
     0
  0
BLOCK_RECORD
  5
45B
330
1
100
AcDbSymbolTableRecord
100
AcDbBlockTableRecord
  2
*D3
340
0
 70
     0
280
     1
281
     0
  0
BLOCK_RECORD
  5
4ED
330
1
100
AcDbSymbolTableRecord
100
AcDbBlockTableRecord
  2
*D4
340
0
 70
     0
280
     1
281
     0
  0
BLOCK_RECORD
  5
751
330
1
100
AcDbSymbolTableRecord
100
AcDbBlockTableRecord
  2
*D5
340
0
 70
     0
280
     1
281
     0
  0
ENDTAB
  0
ENDSEC
  0
SECTION
  2
BLOCKS
  0
BLOCK
  5
20
330
1F
100
AcDbEntity
  8
0
100
AcDbBlockBegin
  2
*Model_Space
 70
     0
 10
0.0
 20
0.0
 30
0.0
  3
*Model_Space
  1
*Model_Space
  0
ENDBLK
  5
21
330
1F
100
AcDbEntity
  8
0
100
AcDbBlockEnd
  0
BLOCK
  5
1C
330
1B
100
AcDbEntity
 67
     1
  8
0
100
AcDbBlockBegin
  2
*Paper_Space
 70
     0
 10
0.0
 20
0.0
 30
0.0
  3
*Paper_Space
  1
*Paper_Space
  0
ENDBLK
  5
1D
330
1B
100
AcDbEntity
 67
     1
  8
0
100
AcDbBlockEnd
  0
BLOCK
  5
24
330
23
100
AcDbEntity
  8
0
100
AcDbBlockBegin
  2
*Paper_Space0
 70
     0
 10
0.0
 20
0.0
 30
0.0
  3
*Paper_Space0
  1
*Paper_Space0
  0
ENDBLK
  5
25
330
23
100
AcDbEntity
  8
0
100
AcDbBlockEnd
  0
BLOCK
  5
447
330
43B
100
AcDbEntity
  8
0
100
AcDbBlockBegin
  2
*D1
 70
     1
 10
0.0
 20
0.0
 30
0.0
  3
*D1
  1
*D1
  0
LINE
  5
43C
330
43B
100
AcDbEntity
  8
0
 62
     0
370
    -2
100
AcDbLine
 10
207.5541973061156
 20
142.9518983056793
 30
0.0
 11
207.5541973061156
 21
156.1529156460005
 31
0.0
  0
LINE
  5
43D
330
43B
100
AcDbEntity
  8
0
 62
     0
370
    -2
100
AcDbLine
 10
206.8041973061156
 20
147.9518983056793
 30
0.0
 11
206.8041973061156
 21
156.1529156460005
 31
0.0
  0
LINE
  5
43E
330
43B
100
AcDbEntity
  8
0
 62
     0
370
    -2
100
AcDbLine
 10
206.8041973061156
 20
154.9029156460005
 30
0.0
 11
193.0541973061156
 21
154.9029156460005
 31
0.0
  0
LINE
  5
43F
330
43B
100
AcDbEntity
  8
0
 62
     0
370
    -2
100
AcDbLine
 10
207.5541973061156
 20
154.9029156460005
 30
0.0
 11
206.8041973061156
 21
154.9029156460005
 31
0.0
  0
LINE
  5
440
330
43B
100
AcDbEntity
  8
0
 62
     0
370
    -2
100
AcDbLine
 10
207.5541973061156
 20
154.9029156460005
 30
0.0
 11
212.5541973061156
 21
154.9029156460005
 31
0.0
  0
SOLID
  5
441
330
43B
100
AcDbEntity
  8
0
 62
     0
100
AcDbTrace
 10
210.0541973061156
 20
155.3195823126672
 30
0.0
 11
210.0541973061156
 21
154.4862489793339
 31
0.0
 12
207.5541973061156
 22
154.9029156460005
 32
0.0
 13
207.5541973061156
 23
154.9029156460005
 33
0.0
  0
SOLID
  5
442
330
43B
100
AcDbEntity
  8
0
 62
     0
100
AcDbTrace
 10
204.3041973061156
 20
154.4862489793339
 30
0.0
 11
204.3041973061156
 21
155.3195823126672
 31
0.0
 12
206.8041973061156
 22
154.9029156460005
 32
0.0
 13
206.8041973061156
 23
154.9029156460005
 33
0.0
  0
MTEXT
  5
443
330
43B
100
AcDbEntity
  8
0
 62
     0
100
AcDbMText
 10
197.4291973061156
 20
156.9862489793339
 30
0.0
 40
2.5
 41
0.0
 46
0.0
 71
     5
 72
     1
  1
0,75
 73
     1
 44
1.0
  0
POINT
  5
444
330
43B
100
AcDbEntity
  8
Defpoints
 62
     0
100
AcDbPoint
 10
207.5541973061156
 20
142.3268983056793
 30
0.0
  0
POINT
  5
445
330
43B
100
AcDbEntity
  8
Defpoints
 62
     0
100
AcDbPoint
 10
206.8041973061156
 20
147.3268983056793
 30
0.0
  0
POINT
  5
446
330
43B
100
AcDbEntity
  8
Defpoints
 62
     0
100
AcDbPoint
 10
206.8041973061156
 20
154.9029156460005
 30
0.0
  0
ENDBLK
  5
448
330
43B
100
AcDbEntity
  8
0
100
AcDbBlockEnd
  0
BLOCK
  5
456
330
44C
100
AcDbEntity
  8
0
100
AcDbBlockBegin
  2
*D2
 70
     1
 10
0.0
 20
0.0
 30
0.0
  3
*D2
  1
*D2
  0
LINE
  5
44D
330
44C
100
AcDbEntity
  8
0
 62
     0
370
    -2
100
AcDbLine
 10
183.3358891497939
 20
147.9518983056793
 30
0.0
 11
183.3358891497939
 21
153.3855572876994
 31
0.0
  0
LINE
  5
44E
330
44C
100
AcDbEntity
  8
0
 62
     0
370
    -2
100
AcDbLine
 10
202.8041973061156
 20
147.9518983056801
 30
0.0
 11
202.8041973061156
 21
153.3855572876994
 31
0.0
  0
LINE
  5
44F
330
44C
100
AcDbEntity
  8
0
 62
     0
370
    -2
100
AcDbLine
 10
185.8358891497939
 20
152.1355572876994
 30
0.0
 11
200.3041973061156
 21
152.1355572876994
 31
0.0
  0
SOLID
  5
450
330
44C
100
AcDbEntity
  8
0
 62
     0
100
AcDbTrace
 10
185.8358891497939
 20
152.5522239543661
 30
0.0
 11
185.8358891497939
 21
151.7188906210328
 31
0.0
 12
183.3358891497939
 22
152.1355572876994
 32
0.0
 13
183.3358891497939
 23
152.1355572876994
 33
0.0
  0
SOLID
  5
451
330
44C
100
AcDbEntity
  8
0
 62
     0
100
AcDbTrace
 10
200.3041973061156
 20
151.7188906210328
 30
0.0
 11
200.3041973061156
 21
152.5522239543661
 31
0.0
 12
202.8041973061156
 22
152.1355572876994
 32
0.0
 13
202.8041973061156
 23
152.1355572876994
 33
0.0
  0
MTEXT
  5
452
330
44C
100
AcDbEntity
  8
0
 62
     0
100
AcDbMText
 10
193.0700432279547
 20
154.2188906210328
 30
0.0
 40
2.5
 41
0.0
 46
0.0
 71
     5
 72
     1
  1
19,47
 73
     1
 44
1.0
  0
POINT
  5
453
330
44C
100
AcDbEntity
  8
Defpoints
 62
     0
100
AcDbPoint
 10
183.3358891497939
 20
147.3268983056793
 30
0.0
  0
POINT
  5
454
330
44C
100
AcDbEntity
  8
Defpoints
 62
     0
100
AcDbPoint
 10
202.8041973061156
 20
147.3268983056801
 30
0.0
  0
POINT
  5
455
330
44C
100
AcDbEntity
  8
Defpoints
 62
     0
100
AcDbPoint
 10
202.8041973061156
 20
152.1355572876994
 30
0.0
  0
ENDBLK
  5
457
330
44C
100
AcDbEntity
  8
0
100
AcDbBlockEnd
  0
BLOCK
  5
465
330
45B
100
AcDbEntity
  8
0
100
AcDbBlockBegin
  2
*D3
 70
     1
 10
0.0
 20
0.0
 30
0.0
  3
*D3
  1
*D3
  0
LINE
  5
45C
330
45B
100
AcDbEntity
  8
0
 62
     0
370
    -2
100
AcDbLine
 10
49.89605768364083
 20
11.00549301205916
 30
0.0
 11
62.78474844065749
 21
11.00549301205916
 31
0.0
  0
LINE
  5
45D
330
45B
100
AcDbEntity
  8
0
 62
     0
370
    -2
100
AcDbLine
 10
49.89605768364086
 20
30.47380116838079
 30
0.0
 11
62.78474844065749
 21
30.47380116838079
 31
0.0
  0
LINE
  5
45E
330
45B
100
AcDbEntity
  8
0
 62
     0
370
    -2
100
AcDbLine
 10
61.53474844065749
 20
13.50549301205916
 30
0.0
 11
61.53474844065749
 21
27.97380116838079
 31
0.0
  0
SOLID
  5
45F
330
45B
100
AcDbEntity
  8
0
 62
     0
100
AcDbTrace
 10
61.11808177399083
 20
13.50549301205916
 30
0.0
 11
61.95141510732416
 21
13.50549301205916
 31
0.0
 12
61.53474844065749
 22
11.00549301205916
 32
0.0
 13
61.53474844065749
 23
11.00549301205916
 33
0.0
  0
SOLID
  5
460
330
45B
100
AcDbEntity
  8
0
 62
     0
100
AcDbTrace
 10
61.95141510732416
 20
27.97380116838079
 30
0.0
 11
61.11808177399083
 21
27.97380116838079
 31
0.0
 12
61.53474844065749
 22
30.47380116838079
 32
0.0
 13
61.53474844065749
 23
30.47380116838079
 33
0.0
  0
MTEXT
  5
461
330
45B
100
AcDbEntity
  8
0
 62
     0
100
AcDbMText
 10
59.45141510732417
 20
20.73964709021998
 30
0.0
 40
2.5
 41
0.0
 46
0.0
 71
     5
 72
     1
  1
19,47
 11
0.0
 21
1.0
 31
0.0
 73
     1
 44
1.0
  0
POINT
  5
462
330
45B
100
AcDbEntity
  8
Defpoints
 62
     0
100
AcDbPoint
 10
49.27105768364083
 20
11.00549301205916
 30
0.0
  0
POINT
  5
463
330
45B
100
AcDbEntity
  8
Defpoints
 62
     0
100
AcDbPoint
 10
49.27105768364086
 20
30.47380116838079
 30
0.0
  0
POINT
  5
464
330
45B
100
AcDbEntity
  8
Defpoints
 62
     0
100
AcDbPoint
 10
61.53474844065749
 20
30.47380116838079
 30
0.0
  0
ENDBLK
  5
466
330
45B
100
AcDbEntity
  8
0
100
AcDbBlockEnd
  0
BLOCK
  5
4F7
330
4ED
100
AcDbEntity
  8
0
100
AcDbBlockBegin
  2
*D4
 70
     1
 10
0.0
 20
0.0
 30
0.0
  3
*D4
  1
*D4
  0
LINE
  5
4EE
330
4ED
100
AcDbEntity
  8
0
 62
     0
370
    -2
100
AcDbLine
 10
58.03297314646564
 20
212.4538884559121
 30
0.0
 11
58.03297314646564
 21
205.4121150633251
 31
0.0
  0
LINE
  5
4EF
330
4ED
100
AcDbEntity
  8
0
 62
     0
370
    -2
100
AcDbLine
 10
108.5329731464656
 20
212.4538884559121
 30
0.0
 11
108.5329731464656
 21
205.4121150633251
 31
0.0
  0
LINE
  5
4F0
330
4ED
100
AcDbEntity
  8
0
 62
     0
370
    -2
100
AcDbLine
 10
60.53297314646564
 20
206.6621150633251
 30
0.0
 11
106.0329731464656
 21
206.6621150633251
 31
0.0
  0
SOLID
  5
4F1
330
4ED
100
AcDbEntity
  8
0
 62
     0
100
AcDbTrace
 10
60.53297314646564
 20
207.0787817299918
 30
0.0
 11
60.53297314646564
 21
206.2454483966584
 31
0.0
 12
58.03297314646564
 22
206.6621150633251
 32
0.0
 13
58.03297314646564
 23
206.6621150633251
 33
0.0
  0
SOLID
  5
4F2
330
4ED
100
AcDbEntity
  8
0
 62
     0
100
AcDbTrace
 10
106.0329731464656
 20
206.2454483966584
 30
0.0
 11
106.0329731464656
 21
207.0787817299918
 31
0.0
 12
108.5329731464656
 22
206.6621150633251
 32
0.0
 13
108.5329731464656
 23
206.6621150633251
 33
0.0
  0
MTEXT
  5
4F3
330
4ED
100
AcDbEntity
  8
0
 62
     0
100
AcDbMText
 10
83.28297314646564
 20
208.7454483966584
 30
0.0
 40
2.5
 41
0.0
 46
0.0
 71
     5
 72
     1
  1
50,5
 73
     1
 44
1.0
  0
POINT
  5
4F4
330
4ED
100
AcDbEntity
  8
Defpoints
 62
     0
100
AcDbPoint
 10
58.03297314646564
 20
213.0788884559121
 30
0.0
  0
POINT
  5
4F5
330
4ED
100
AcDbEntity
  8
Defpoints
 62
     0
100
AcDbPoint
 10
108.5329731464656
 20
213.0788884559121
 30
0.0
  0
POINT
  5
4F6
330
4ED
100
AcDbEntity
  8
Defpoints
 62
     0
100
AcDbPoint
 10
108.5329731464656
 20
206.6621150633251
 30
0.0
  0
ENDBLK
  5
4F8
330
4ED
100
AcDbEntity
  8
0
100
AcDbBlockEnd
  0
BLOCK
  5
752
330
751
100
AcDbEntity
  8
0
100
AcDbBlockBegin
  2
*D5
 70
     1
 10
0.0
 20
0.0
 30
0.0
  3
*D5
  1
*D6
  0
LINE
  5
754
330
751
100
AcDbEntity
  8
0
 62
     0
370
    -2
100
AcDbLine
 10
227.0236077395226
 20
198.1422842038754
 30
0.0
 11
227.0236077395226
 21
171.2184133983391
 31
0.0
  0
LINE
  5
755
330
751
100
AcDbEntity
  8
0
 62
     0
370
    -2
100
AcDbLine
 10
259.9236077395226
 20
198.1422842038754
 30
0.0
 11
259.9236077395226
 21
171.2184133983391
 31
0.0
  0
LINE
  5
756
330
751
100
AcDbEntity
  8
0
 62
     0
370
    -2
100
AcDbLine
 10
229.5236077395226
 20
172.4684133983391
 30
0.0
 11
257.4236077395226
 21
172.4684133983391
 31
0.0
  0
SOLID
  5
757
330
751
100
AcDbEntity
  8
0
 62
     0
100
AcDbTrace
 10
229.5236077395226
 20
172.8850800650058
 30
0.0
 11
229.5236077395226
 21
172.0517467316725
 31
0.0
 12
227.0236077395226
 22
172.4684133983391
 32
0.0
 13
227.0236077395226
 23
172.4684133983391
 33
0.0
  0
SOLID
  5
758
330
751
100
AcDbEntity
  8
0
 62
     0
100
AcDbTrace
 10
257.4236077395226
 20
172.0517467316725
 30
0.0
 11
257.4236077395226
 21
172.8850800650058
 31
0.0
 12
259.9236077395226
 22
172.4684133983391
 32
0.0
 13
259.9236077395226
 23
172.4684133983391
 33
0.0
  0
MTEXT
  5
759
330
751
100
AcDbEntity
  8
0
 62
     0
100
AcDbMText
 10
243.4736077395226
 20
174.5517467316725
 30
0.0
 40
2.5
 41
0.0
 46
0.0
 71
     5
 72
     1
  1
32,9
 73
     1
 44
1.0
  0
POINT
  5
75A
330
751
100
AcDbEntity
  8
Defpoints
 62
     0
100
AcDbPoint
 10
227.0236077395226
 20
198.7672842038754
 30
0.0
  0
POINT
  5
75B
330
751
100
AcDbEntity
  8
Defpoints
 62
     0
100
AcDbPoint
 10
259.9236077395226
 20
198.7672842038754
 30
0.0
  0
POINT
  5
75C
330
751
100
AcDbEntity
  8
Defpoints
 62
     0
100
AcDbPoint
 10
259.9236077395226
 20
172.4684133983391
 30
0.0
  0
ENDBLK
  5
753
330
751
100
AcDbEntity
  8
0
100
AcDbBlockEnd
  0
ENDSEC
  0
SECTION
  2
ENTITIES
  0
ARC
  5
7D
330
1F
100
AcDbEntity
  8
0
100
AcDbCircle
 10
-117.2421884526593
 20
79.242864858502
 30
0.0
 40
129.5132461363001
100
AcDbArc
 50
337.3371065047548
 51
22.66289349524513
  0
LINE
  5
7E
330
1F
100
AcDbEntity
  8
0
100
AcDbLine
 10
2.271057683640862
 20
129.1454191290602
 30
0.0
 11
12.36850341308266
 21
139.242864858502
 31
0.0
  0
ARC
  5
7F
330
1F
100
AcDbEntity
  8
0
100
AcDbCircle
 10
241.784303819941
 20
79.242864858502
 30
0.0
 40
129.5132461363001
100
AcDbArc
 50
157.3371065047549
 51
202.662893495245
  0
LINE
  5
80
330
1F
100
AcDbEntity
  8
0
100
AcDbLine
 10
122.2710576836408
 20
129.1454191290602
 30
0.0
 11
112.1736119541991
 21
139.242864858502
 31
0.0
  0
LINE
  5
81
330
1F
100
AcDbEntity
  8
0
100
AcDbLine
 10
122.2710576836408
 20
29.34031058794383
 30
0.0
 11
112.173611954199
 21
19.24286485850203
 31
0.0
  0
LINE
  5
82
330
1F
100
AcDbEntity
  8
0
100
AcDbLine
 10
2.271057683640862
 20
29.34031058794383
 30
0.0
 11
12.36850341308266
 21
19.24286485850203
 31
0.0
  0
CIRCLE
  5
85
330
1F
100
AcDbEntity
  8
0
100
AcDbCircle
 10
38.2699776598394
 20
146.2158681291022
 30
0.0
 40
1.5
  0
CIRCLE
  5
86
330
1F
100
AcDbEntity
  8
0
100
AcDbCircle
 10
84.52105768364086
 20
101.492864858502
 30
0.0
 40
1.5
  0
CIRCLE
  5
87
330
1F
100
AcDbEntity
  8
0
100
AcDbCircle
 10
84.52105768364086
 20
56.992864858502
 30
0.0
 40
1.5
  0
CIRCLE
  5
88
330
1F
100
AcDbEntity
  8
0
100
AcDbCircle
 10
40.02105768364086
 20
56.992864858502
 30
0.0
 40
1.5
  0
ARC
  5
8C
330
1F
100
AcDbEntity
  8
0
100
AcDbCircle
 10
16.63804168068521
 20
-16.96226918726269
 30
0.0
 40
36.45601031778319
100
AcDbArc
 50
31.35182500423345
 51
96.72561841548301
  0
LINE
  5
8D
330
1F
100
AcDbEntity
  8
0
100
AcDbLine
 10
47.77105768364083
 20
2.005493012059162
 30
0.0
 11
76.77105768364089
 21
2.005493012059162
 31
0.0
  0
ARC
  5
8E
330
1F
100
AcDbEntity
  8
0
100
AcDbCircle
 10
107.9040736865965
 20
-16.9622691872626
 30
0.0
 40
36.4560103177831
100
AcDbArc
 50
83.27438158451693
 51
148.6481749957667
  0
ARC
  5
92
330
1F
100
AcDbEntity
  8
0
100
AcDbCircle
 10
16.813422569024
 20
159.8407692372795
 30
0.0
 40
21.07204240457285
100
AcDbArc
 50
257.8226042669411
 51
354.0267890322511
  0
CIRCLE
  5
96
330
1F
100
AcDbEntity
  8
0
100
AcDbCircle
 10
11.41236450817439
 20
28.38417168303556
 30
0.0
 40
1.5
  0
CIRCLE
  5
97
330
1F
100
AcDbEntity
  8
0
100
AcDbCircle
 10
113.1297508591073
 20
28.38417168303556
 30
0.0
 40
1.5
  0
CIRCLE
  5
98
330
1F
100
AcDbEntity
  8
0
100
AcDbCircle
 10
11.41236450817439
 20
130.1015580339684
 30
0.0
 40
1.5
  0
CIRCLE
  5
99
330
1F
100
AcDbEntity
  8
0
100
AcDbCircle
 10
113.1297508591073
 20
130.1015580339684
 30
0.0
 40
1.5
  0
ARC
  5
A6
330
1F
100
AcDbEntity
  8
0
100
AcDbCircle
 10
-110.2421884526588
 20
79.24286485850217
 30
0.0
 40
129.5132461362996
100
AcDbArc
 50
8.061621733878622
 51
20.26605882057034
  0
ARC
  5
AD
330
1F
100
AcDbEntity
  8
0
100
AcDbCircle
 10
65.8084482523208
 20
263.4975615550762
 30
0.0
 40
141.7550918581356
100
AcDbArc
 50
250.0365171923964
 51
261.1230557688039
  0
LINE
  5
AE
330
1F
100
AcDbEntity
  8
0
100
AcDbLine
 10
11.25344817914714
 20
124.1036629364889
 30
0.0
 11
12.91773755929179
 21
125.7677578623131
 31
0.0
  0
LINE
  5
B2
330
1F
100
AcDbEntity
  8
0
100
AcDbLine
 10
12.91764033002741
 20
125.7678550873692
 30
0.0
 11
26.2328382193904
 21
112.4532335080753
 31
0.0
  0
LINE
  5
B3
330
1F
100
AcDbEntity
  8
0
100
AcDbLine
 10
15.74606745477362
 20
128.5962822121154
 30
0.0
 11
29.06097718910206
 21
115.281372477787
 31
0.0
  0
LINE
  5
B4
330
1F
100
AcDbEntity
  8
0
100
AcDbLine
 10
15.74606745477362
 20
128.5962822121154
 30
0.0
 11
17.41025960565389
 21
130.2604743629956
 31
0.0
  0
ARC
  5
B6
330
1F
100
AcDbEntity
  8
0
100
AcDbCircle
 10
62.27105768364048
 20
79.24286485850217
 30
0.0
 40
45.99999999999959
100
AcDbArc
 50
147.0029861951511
 51
157.0813417021092
  0
ARC
  5
B7
330
1F
100
AcDbEntity
  8
0
100
AcDbCircle
 10
62.27105768364079
 20
79.24286485850197
 30
0.0
 40
45.99999999999989
100
AcDbArc
 50
113.1685441691881
 51
122.9535860811654
  0
LINE
  5
B8
330
1F
100
AcDbEntity
  8
0
100
AcDbLine
 10
108.7960479125081
 20
128.5962822121154
 30
0.0
 11
95.48113817817972
 21
115.281372477787
 31
0.0
  0
LINE
  5
B9
330
1F
100
AcDbEntity
  8
0
100
AcDbLine
 10
111.6244750372543
 20
125.7678550873692
 30
0.0
 11
98.30936870108371
 21
112.4533250573051
 31
0.0
  0
ARC
  5
BA
330
1F
100
AcDbEntity
  8
0
100
AcDbCircle
 10
234.7843038199405
 20
79.24286485850217
 30
0.0
 40
129.5132461362996
100
AcDbArc
 50
159.7339411794296
 51
171.9383782661214
  0
LINE
  5
BB
330
1F
100
AcDbEntity
  8
0
100
AcDbLine
 10
113.2886671881346
 20
124.1036629364889
 30
0.0
 11
111.62437780799
 21
125.7677578623131
 31
0.0
  0
LINE
  5
BC
330
1F
100
AcDbEntity
  8
0
100
AcDbLine
 10
108.7960479125081
 20
128.5962822121154
 30
0.0
 11
107.1318557616278
 21
130.2604743629956
 31
0.0
  0
ARC
  5
BF
330
1F
100
AcDbEntity
  8
0
100
AcDbCircle
 10
62.27105768363446
 20
79.2428648584992
 30
0.0
 40
46.00000000000695
100
AcDbArc
 50
22.91865829789089
 51
32.99701380484757
  0
ARC
  5
C0
330
1F
100
AcDbEntity
  8
0
100
AcDbCircle
 10
234.7843038199405
 20
79.2428648585016
 30
0.0
 40
129.5132461362996
100
AcDbArc
 50
188.0616217338787
 51
200.2660588205703
  0
ARC
  5
C1
330
1F
100
AcDbEntity
  8
0
100
AcDbCircle
 10
62.27105768364536
 20
79.24286485849973
 30
0.0
 40
45.99999999999508
100
AcDbArc
 50
327.0029861951505
 51
337.0813417021093
  0
LINE
  5
C2
330
1F
100
AcDbEntity
  8
0
100
AcDbLine
 10
111.6244750372543
 20
32.71787462963454
 30
0.0
 11
98.30936870108371
 21
46.03240465969893
 31
0.0
  0
LINE
  5
C3
330
1F
100
AcDbEntity
  8
0
100
AcDbLine
 10
113.2886671881346
 20
34.38206678051483
 30
0.0
 11
111.62437780799
 21
32.71797185469063
 31
0.0
  0
LINE
  5
C4
330
1F
100
AcDbEntity
  8
0
100
AcDbLine
 10
108.7960479125081
 20
29.88944750488838
 30
0.0
 11
107.1318557616278
 21
28.22525535400811
 31
0.0
  0
LINE
  5
C6
330
1F
100
AcDbEntity
  8
0
100
AcDbLine
 10
108.7960479125081
 20
29.88944750488838
 30
0.0
 11
95.48113817817972
 21
43.20435723921702
 31
0.0
  0
ARC
  5
C8
330
1F
100
AcDbEntity
  8
0
100
AcDbCircle
 10
62.27105768364154
 20
-93.27038127780071
 30
0.0
 40
129.5132461363026
100
AcDbArc
 50
98.06162173387884
 51
110.2660588205702
  0
LINE
  5
C9
330
1F
100
AcDbEntity
  8
0
100
AcDbLine
 10
15.74606745477362
 20
29.88944750488838
 30
0.0
 11
17.41025960565389
 21
28.22525535400811
 31
0.0
  0
LINE
  5
CA
330
1F
100
AcDbEntity
  8
0
100
AcDbLine
 10
15.74606745477362
 20
29.88944750488838
 30
0.0
 11
29.06097718910206
 21
43.20435723921707
 31
0.0
  0
ARC
  5
CB
330
1F
100
AcDbEntity
  8
0
100
AcDbCircle
 10
62.27105768363116
 20
79.24286485848123
 30
0.0
 40
45.9999999999773
100
AcDbArc
 50
237.0464139188308
 51
247.0813417021102
  0
LINE
  5
CC
330
1F
100
AcDbEntity
  8
0
100
AcDbLine
 10
12.91764033002741
 20
32.71787462963454
 30
0.0
 11
26.23274666619807
 21
46.032404659699
 31
0.0
  0
ARC
  5
CD
330
1F
100
AcDbEntity
  8
0
100
AcDbCircle
 10
62.27105768363008
 20
79.24286485849697
 30
0.0
 40
45.99999999998825
100
AcDbArc
 50
202.9186582978906
 51
212.9970138048508
  0
ARC
  5
CE
330
1F
100
AcDbEntity
  8
0
100
AcDbCircle
 10
-110.2421884526588
 20
79.2428648585016
 30
0.0
 40
129.5132461362996
100
AcDbArc
 50
339.7339411794297
 51
351.9383782661214
  0
LINE
  5
CF
330
1F
100
AcDbEntity
  8
0
100
AcDbLine
 10
11.25344817914714
 20
34.38206678051483
 30
0.0
 11
12.91773755929179
 21
32.71797185469063
 31
0.0
  0
ARC
  5
D0
330
1F
100
AcDbEntity
  8
0
100
AcDbCircle
 10
19.0628579350327
 20
-13.68290587287419
 30
0.0
 40
39.10068902673608
100
AcDbArc
 50
43.20140349646294
 51
83.92854450200772
  0
ARC
  5
D1
330
1F
100
AcDbEntity
  8
0
100
AcDbCircle
 10
62.27105768364035
 20
-96.27038127779632
 30
0.0
 40
129.5132461362981
100
AcDbArc
 50
97.83377918413807
 51
107.6506465525143
  0
ARC
  5
D2
330
1F
100
AcDbEntity
  8
0
100
AcDbCircle
 10
14.89094702052893
 20
15.92444137284338
 30
0.0
 40
34.47287766888718
100
AcDbArc
 50
356.30730962195
 51
26.8516455438875
  0
ARC
  5
E3
330
1F
100
AcDbEntity
  8
0
100
AcDbCircle
 10
62.27105768364018
 20
-93.27038127780071
 30
0.0
 40
129.5132461363026
100
AcDbArc
 50
69.73394117942978
 51
81.79066303338712
  0
ARC
  5
E4
330
1F
100
AcDbEntity
  8
0
100
AcDbCircle
 10
69.9638566559936
 20
64.31312083326932
 30
0.0
 40
29.44252543846929
100
AcDbArc
 50
291.0677359833077
 51
306.033568755067
  0
ARC
  5
E9
330
1F
100
AcDbEntity
  8
0
100
AcDbCircle
 10
12.20658223258464
 20
16.52782541396494
 30
0.0
 40
42.9022195214678
100
AcDbArc
 50
346.9867774328844
 51
21.57466538168115
  0
ARC
  5
EA
330
1F
100
AcDbEntity
  8
0
100
AcDbCircle
 10
112.1293630212313
 20
16.54325766116132
 30
0.0
 40
42.70486344005431
100
AcDbArc
 50
158.3428750114121
 51
193.0956821740225
  0
LINE
  5
EB
330
1F
100
AcDbEntity
  8
0
100
AcDbLine
 10
54.00699232516229
 20
6.867279054646247
 30
0.0
 11
70.53512304211944
 21
6.867279054646247
 31
0.0
  0
CIRCLE
  5
12A
330
1F
100
AcDbEntity
  8
0
100
AcDbCircle
 10
133.1248322147651
 20
212.3456375838926
 30
0.0
 40
0.0
  0
ARC
  5
134
330
1F
100
AcDbEntity
  8
0
100
AcDbCircle
 10
62.27105768364082
 20
79.24286485850169
 30
0.0
 40
46.0000000000002
100
AcDbArc
 50
57.04641391883472
 51
66.83145583081192
  0
ARC
  5
135
330
1F
100
AcDbEntity
  8
0
100
AcDbCircle
 10
58.73366711496092
 20
263.4975615550762
 30
0.0
 40
141.7550918581356
100
AcDbArc
 50
278.8769442311961
 51
289.9634828076036
  0
ARC
  5
137
330
1F
100
AcDbEntity
  8
0
100
AcDbCircle
 10
105.479257432249
 20
-13.68290587287419
 30
0.0
 40
39.10068902673608
100
AcDbArc
 50
96.07145549799228
 51
136.7985965035369
  0
ARC
  5
138
330
1F
100
AcDbEntity
  8
0
100
AcDbCircle
 10
109.6511683467528
 20
15.92444137284338
 30
0.0
 40
34.47287766888718
100
AcDbArc
 50
153.1483544561125
 51
183.6926903780501
  0
ARC
  5
139
330
1F
100
AcDbEntity
  8
0
100
AcDbCircle
 10
62.27105768364137
 20
-96.27038127779632
 30
0.0
 40
129.5132461362981
100
AcDbArc
 50
72.34935344748577
 51
82.16622081586202
  0
ARC
  5
13C
330
1F
100
AcDbEntity
  8
0
100
AcDbCircle
 10
54.0284169965216
 20
79.242864858502
 30
0.0
 40
2.999999999999984
100
AcDbArc
 50
314.9999999999993
 51
44.99999999999923
  0
LINE
  5
13E
330
1F
100
AcDbEntity
  8
0
100
AcDbLine
 10
47.77105768364083
 20
5.505493012059162
 30
0.0
 11
47.77105768364083
 21
9.505493012059162
 31
0.0
  0
LINE
  5
13F
330
1F
100
AcDbEntity
  8
0
100
AcDbLine
 10
47.77105768364083
 20
9.505493012059162
 30
0.0
 11
49.27105768364083
 21
9.505493012059162
 31
0.0
  0
LINE
  5
140
330
1F
100
AcDbEntity
  8
0
100
AcDbLine
 10
49.27105768364083
 20
9.505493012059162
 30
0.0
 11
49.27105768364083
 21
5.505493012059162
 31
0.0
  0
LINE
  5
141
330
1F
100
AcDbEntity
  8
0
100
AcDbLine
 10
49.27105768364083
 20
5.505493012059162
 30
0.0
 11
47.77105768364083
 21
5.505493012059162
 31
0.0
  0
LINE
  5
142
330
1F
100
AcDbEntity
  8
0
100
AcDbLine
 10
47.77105768364086
 20
28.97380116838079
 30
0.0
 11
47.77105768364086
 21
32.97380116838079
 31
0.0
  0
LINE
  5
143
330
1F
100
AcDbEntity
  8
0
100
AcDbLine
 10
47.77105768364086
 20
32.97380116838079
 30
0.0
 11
49.27105768364086
 21
32.97380116838079
 31
0.0
  0
LINE
  5
144
330
1F
100
AcDbEntity
  8
0
100
AcDbLine
 10
49.27105768364086
 20
32.97380116838079
 30
0.0
 11
49.27105768364086
 21
28.97380116838079
 31
0.0
  0
LINE
  5
145
330
1F
100
AcDbEntity
  8
0
100
AcDbLine
 10
49.27105768364086
 20
28.97380116838079
 30
0.0
 11
47.77105768364086
 21
28.97380116838079
 31
0.0
  0
LINE
  5
146
330
1F
100
AcDbEntity
  8
0
100
AcDbLine
 10
76.77105768364089
 20
5.505493012059162
 30
0.0
 11
76.77105768364089
 21
9.505493012059162
 31
0.0
  0
LINE
  5
147
330
1F
100
AcDbEntity
  8
0
100
AcDbLine
 10
76.77105768364089
 20
9.505493012059162
 30
0.0
 11
75.27105768364089
 21
9.505493012059162
 31
0.0
  0
LINE
  5
148
330
1F
100
AcDbEntity
  8
0
100
AcDbLine
 10
75.27105768364089
 20
9.505493012059162
 30
0.0
 11
75.27105768364089
 21
5.505493012059162
 31
0.0
  0
LINE
  5
149
330
1F
100
AcDbEntity
  8
0
100
AcDbLine
 10
75.27105768364089
 20
5.505493012059162
 30
0.0
 11
76.77105768364089
 21
5.505493012059162
 31
0.0
  0
LINE
  5
153
330
1F
100
AcDbEntity
  8
0
100
AcDbLine
 10
40.77105768364086
 20
154.6479396719245
 30
0.0
 11
40.77105768364086
 21
150.6479396719245
 31
0.0
  0
LINE
  5
154
330
1F
100
AcDbEntity
  8
0
100
AcDbLine
 10
40.77105768364086
 20
150.6479396719245
 30
0.0
 11
42.27105768364086
 21
150.6479396719245
 31
0.0
  0
LINE
  5
155
330
1F
100
AcDbEntity
  8
0
100
AcDbLine
 10
42.27105768364086
 20
150.6479396719245
 30
0.0
 11
42.27105768364086
 21
154.6479396719245
 31
0.0
  0
LINE
  5
156
330
1F
100
AcDbEntity
  8
0
100
AcDbLine
 10
42.27105768364086
 20
154.6479396719245
 30
0.0
 11
40.77105768364086
 21
154.6479396719245
 31
0.0
  0
LINE
  5
157
330
1F
100
AcDbEntity
  8
0
100
AcDbLine
 10
40.77105768364086
 20
139.7434733350487
 30
0.0
 11
40.77105768364086
 21
135.7434733350487
 31
0.0
  0
LINE
  5
158
330
1F
100
AcDbEntity
  8
0
100
AcDbLine
 10
40.77105768364086
 20
135.7434733350487
 30
0.0
 11
42.27105768364086
 21
135.7434733350487
 31
0.0
  0
LINE
  5
159
330
1F
100
AcDbEntity
  8
0
100
AcDbLine
 10
42.27105768364086
 20
135.7434733350487
 30
0.0
 11
42.27105768364086
 21
139.7434733350487
 31
0.0
  0
LINE
  5
15A
330
1F
100
AcDbEntity
  8
0
100
AcDbLine
 10
42.27105768364086
 20
139.7434733350487
 30
0.0
 11
40.77105768364086
 21
139.7434733350487
 31
0.0
  0
LINE
  5
15B
330
1F
100
AcDbEntity
  8
0
100
AcDbLine
 10
83.77105768364086
 20
139.7434733350487
 30
0.0
 11
83.77105768364086
 21
135.7434733350487
 31
0.0
  0
LINE
  5
15C
330
1F
100
AcDbEntity
  8
0
100
AcDbLine
 10
83.77105768364086
 20
135.7434733350487
 30
0.0
 11
82.27105768364086
 21
135.7434733350487
 31
0.0
  0
LINE
  5
15D
330
1F
100
AcDbEntity
  8
0
100
AcDbLine
 10
82.27105768364086
 20
135.7434733350487
 30
0.0
 11
82.27105768364086
 21
139.7434733350487
 31
0.0
  0
LINE
  5
15E
330
1F
100
AcDbEntity
  8
0
100
AcDbLine
 10
82.27105768364086
 20
139.7434733350487
 30
0.0
 11
83.77105768364086
 21
139.7434733350487
 31
0.0
  0
LINE
  5
15F
330
1F
100
AcDbEntity
  8
0
100
AcDbLine
 10
83.77105768364086
 20
154.6479396719245
 30
0.0
 11
83.77105768364086
 21
150.6479396719245
 31
0.0
  0
LINE
  5
160
330
1F
100
AcDbEntity
  8
0
100
AcDbLine
 10
83.77105768364086
 20
150.6479396719245
 30
0.0
 11
82.27105768364086
 21
150.6479396719245
 31
0.0
  0
LINE
  5
161
330
1F
100
AcDbEntity
  8
0
100
AcDbLine
 10
82.27105768364086
 20
150.6479396719245
 30
0.0
 11
82.27105768364086
 21
154.6479396719245
 31
0.0
  0
LINE
  5
162
330
1F
100
AcDbEntity
  8
0
100
AcDbLine
 10
82.27105768364086
 20
154.6479396719245
 30
0.0
 11
83.77105768364086
 21
154.6479396719245
 31
0.0
  0
LINE
  5
163
330
1F
100
AcDbEntity
  8
0
100
AcDbLine
 10
76.77105768364086
 20
28.97380116838079
 30
0.0
 11
76.77105768364086
 21
32.97380116838079
 31
0.0
  0
LINE
  5
164
330
1F
100
AcDbEntity
  8
0
100
AcDbLine
 10
76.77105768364086
 20
32.97380116838079
 30
0.0
 11
75.27105768364086
 21
32.97380116838079
 31
0.0
  0
LINE
  5
165
330
1F
100
AcDbEntity
  8
0
100
AcDbLine
 10
75.27105768364086
 20
32.97380116838079
 30
0.0
 11
75.27105768364086
 21
28.97380116838079
 31
0.0
  0
LINE
  5
166
330
1F
100
AcDbEntity
  8
0
100
AcDbLine
 10
75.27105768364086
 20
28.97380116838079
 30
0.0
 11
76.77105768364086
 21
28.97380116838079
 31
0.0
  0
ARC
  5
167
330
1F
100
AcDbEntity
  8
0
100
AcDbCircle
 10
39.70329533089082
 20
61.83829481574801
 30
0.0
 40
129.5132461363001
100
AcDbArc
 50
337.3371065047548
 51
22.66289349524513
  0
LINE
  5
168
330
1F
100
AcDbEntity
  8
0
100
AcDbLine
 10
159.216541467191
 20
111.7408490863062
 30
0.0
 11
169.3139871966328
 21
121.838294815748
 31
0.0
  0
ARC
  5
169
330
1F
100
AcDbEntity
  8
0
100
AcDbCircle
 10
398.7297876034911
 20
61.83829481574801
 30
0.0
 40
129.5132461363001
100
AcDbArc
 50
157.3371065047549
 51
202.662893495245
  0
LINE
  5
16A
330
1F
100
AcDbEntity
  8
0
100
AcDbLine
 10
279.216541467191
 20
111.7408490863062
 30
0.0
 11
269.1190957377491
 21
121.838294815748
 31
0.0
  0
LINE
  5
16B
330
1F
100
AcDbEntity
  8
0
100
AcDbLine
 10
279.216541467191
 20
11.93574054518984
 30
0.0
 11
269.1190957377491
 21
1.838294815748043
 31
0.0
  0
LINE
  5
16C
330
1F
100
AcDbEntity
  8
0
100
AcDbLine
 10
159.216541467191
 20
11.93574054518984
 30
0.0
 11
169.3139871966328
 21
1.838294815748043
 31
0.0
  0
CIRCLE
  5
16D
330
1F
100
AcDbEntity
  8
0
100
AcDbCircle
 10
196.966541467191
 20
84.08829481574801
 30
0.0
 40
1.5
  0
CIRCLE
  5
16E
330
1F
100
AcDbEntity
  8
0
100
AcDbCircle
 10
241.466541467191
 20
84.08829481574801
 30
0.0
 40
1.5
  0
CIRCLE
  5
16F
330
1F
100
AcDbEntity
  8
0
100
AcDbCircle
 10
241.466541467191
 20
39.58829481574801
 30
0.0
 40
1.5
  0
CIRCLE
  5
170
330
1F
100
AcDbEntity
  8
0
100
AcDbCircle
 10
196.966541467191
 20
39.58829481574801
 30
0.0
 40
1.5
  0
CIRCLE
  5
177
330
1F
100
AcDbEntity
  8
0
100
AcDbCircle
 10
168.3578482917245
 20
10.97960164028157
 30
0.0
 40
1.5
  0
CIRCLE
  5
178
330
1F
100
AcDbEntity
  8
0
100
AcDbCircle
 10
270.0752346426574
 20
10.97960164028157
 30
0.0
 40
1.5
  0
CIRCLE
  5
179
330
1F
100
AcDbEntity
  8
0
100
AcDbCircle
 10
168.3578482917245
 20
112.6969879912145
 30
0.0
 40
1.5
  0
CIRCLE
  5
17A
330
1F
100
AcDbEntity
  8
0
100
AcDbCircle
 10
270.0752346426574
 20
112.6969879912145
 30
0.0
 40
1.5
  0
ARC
  5
17C
330
1F
100
AcDbEntity
  8
0
100
AcDbCircle
 10
222.7539320358709
 20
246.0929915123222
 30
0.0
 40
141.7550918581356
100
AcDbArc
 50
250.5101054417896
 51
261.1230557688039
  0
LINE
  5
17F
330
1F
100
AcDbEntity
  8
0
100
AcDbLine
 10
173.8975574478896
 20
109.9857059597956
 30
0.0
 11
188.1038430949828
 21
95.77942031270229
 31
0.0
  0
ARC
  5
182
330
1F
100
AcDbEntity
  8
0
100
AcDbCircle
 10
219.2165414671907
 20
61.83829481574836
 30
0.0
 40
45.99999999999945
100
AcDbArc
 50
113.168544169188
 51
132.5086828968184
  0
ARC
  5
1E5
330
1F
100
AcDbEntity
  8
0
100
AcDbCircle
 10
34.96184477061666
 20
58.30090424706808
 30
0.0
 40
141.7550918581356
100
AcDbArc
 50
8.87694423119598
 51
19.48989455821054
  0
LINE
  5
1E6
330
1F
100
AcDbEntity
  8
0
100
AcDbLine
 10
171.0691303231432
 20
107.1572788350496
 30
0.0
 11
185.2754159702367
 21
92.95099318795613
 31
0.0
  0
ARC
  5
1E8
330
1F
100
AcDbEntity
  8
0
100
AcDbCircle
 10
219.2165414671906
 20
61.83829481574824
 30
0.0
 40
45.99999999999945
100
AcDbArc
 50
137.4913171031815
 51
156.8314558308122
  0
ARC
  5
1EA
330
1F
100
AcDbEntity
  8
0
100
AcDbCircle
 10
222.7539320358709
 20
-122.4164018808262
 30
0.0
 40
141.7550918581356
100
AcDbArc
 50
98.87694423119609
 51
109.4898945582105
  0
LINE
  5
1EB
330
1F
100
AcDbEntity
  8
0
100
AcDbLine
 10
173.8975574478895
 20
13.6908836717004
 30
0.0
 11
188.1038430949828
 21
27.89716931879374
 31
0.0
  0
ARC
  5
1ED
330
1F
100
AcDbEntity
  8
0
100
AcDbCircle
 10
219.2165414671907
 20
61.83829481574767
 30
0.0
 40
45.99999999999945
100
AcDbArc
 50
227.4913171031816
 51
246.8314558308121
  0
LINE
  5
1EE
330
1F
100
AcDbEntity
  8
0
100
AcDbLine
 10
171.0691303231432
 20
16.51931079644642
 30
0.0
 11
185.2754159702367
 21
30.7255964435399
 31
0.0
  0
ARC
  5
1F0
330
1F
100
AcDbEntity
  8
0
100
AcDbCircle
 10
34.96184477061666
 20
65.37568538442795
 30
0.0
 40
141.7550918581356
100
AcDbArc
 50
340.5101054417893
 51
351.123055768804
  0
ARC
  5
1F1
330
1F
100
AcDbEntity
  8
0
100
AcDbCircle
 10
219.2165414671906
 20
61.83829481574779
 30
0.0
 40
45.99999999999945
100
AcDbArc
 50
203.1685441691877
 51
222.5086828968185
  0
ARC
  5
1F4
330
1F
100
AcDbEntity
  8
0
100
AcDbCircle
 10
219.2165414671912
 20
61.83829481574836
 30
0.0
 40
45.99999999999945
100
AcDbArc
 50
47.49131710318159
 51
66.83145583081202
  0
LINE
  5
1F5
330
1F
100
AcDbEntity
  8
0
100
AcDbLine
 10
264.5355254864924
 20
109.9857059597956
 30
0.0
 11
250.3292398393991
 21
95.77942031270229
 31
0.0
  0
ARC
  5
1F6
330
1F
100
AcDbEntity
  8
0
100
AcDbCircle
 10
215.679150898511
 20
246.0929915123222
 30
0.0
 40
141.7550918581356
100
AcDbArc
 50
278.8769442311961
 51
289.4898945582105
  0
LINE
  5
1F9
330
1F
100
AcDbEntity
  8
0
100
AcDbLine
 10
267.3639526112387
 20
107.1572788350495
 30
0.0
 11
253.1576669641452
 21
92.95099318795613
 31
0.0
  0
ARC
  5
1FA
330
1F
100
AcDbEntity
  8
0
100
AcDbCircle
 10
403.4712381637653
 20
58.30090424706808
 30
0.0
 40
141.7550918581356
100
AcDbArc
 50
160.5101054417895
 51
171.1230557688041
  0
ARC
  5
1FB
330
1F
100
AcDbEntity
  8
0
100
AcDbCircle
 10
219.2165414671913
 20
61.83829481574824
 30
0.0
 40
45.99999999999945
100
AcDbArc
 50
23.16854416918752
 51
42.50868289681851
  0
ARC
  5
1FD
330
1F
100
AcDbEntity
  8
0
100
AcDbCircle
 10
219.2165414671912
 20
61.83829481574767
 30
0.0
 40
45.99999999999945
100
AcDbArc
 50
293.1685441691878
 51
312.5086828968184
  0
ARC
  5
1FE
330
1F
100
AcDbEntity
  8
0
100
AcDbCircle
 10
215.679150898511
 20
-122.4164018808262
 30
0.0
 40
141.7550918581356
100
AcDbArc
 50
70.51010544178952
 51
81.12305576880402
  0
LINE
  5
200
330
1F
100
AcDbEntity
  8
0
100
AcDbLine
 10
264.5355254864924
 20
13.6908836717004
 30
0.0
 11
250.3292398393991
 21
27.89716931879374
 31
0.0
  0
LINE
  5
201
330
1F
100
AcDbEntity
  8
0
100
AcDbLine
 10
267.3639526112387
 20
16.51931079644648
 30
0.0
 11
253.1576669641452
 21
30.7255964435399
 31
0.0
  0
ARC
  5
203
330
1F
100
AcDbEntity
  8
0
100
AcDbCircle
 10
403.4712381637653
 20
65.37568538442795
 30
0.0
 40
141.7550918581356
100
AcDbArc
 50
188.8769442311959
 51
199.4898945582105
  0
ARC
  5
204
330
1F
100
AcDbEntity
  8
0
100
AcDbCircle
 10
219.2165414671913
 20
61.83829481574779
 30
0.0
 40
45.99999999999945
100
AcDbArc
 50
317.4913171031816
 51
336.8314558308124
  0
ARC
  5
209
330
1F
100
AcDbEntity
  8
0
100
AcDbCircle
 10
219.2165414671909
 20
-117.6749513205521
 30
0.0
 40
129.5132461363001
100
AcDbArc
 50
67.33710650475487
 51
112.6628934952451
  0
ARC
  5
20A
330
1F
100
AcDbEntity
  8
0
100
AcDbCircle
 10
219.2165414671909
 20
241.3515409520481
 30
0.0
 40
129.5132461363001
100
AcDbArc
 50
247.3371065047548
 51
292.662893495245
  0
LINE
  5
227
330
1F
100
AcDbEntity
  8
0
100
AcDbLine
 10
198.466541467191
 20
45.09136670168799
 30
0.0
 11
198.466541467191
 21
78.58522292980805
 31
0.0
  0
LINE
  5
229
330
1F
100
AcDbEntity
  8
0
100
AcDbLine
 10
192.966541467191
 20
39.59252165025931
 30
0.0
 11
192.966541467191
 21
84.08406798123673
 31
0.0
  0
ARC
  5
246
330
1F
100
AcDbEntity
  8
0
100
AcDbCircle
 10
62.27105768364086
 20
76.58337754703408
 30
0.0
 40
43.74175713360115
100
AcDbArc
 50
258.8199273869898
 51
281.1800726130102
  0
CIRCLE
  5
26E
330
1F
100
AcDbEntity
  8
0
100
AcDbCircle
 10
133.1248322147651
 20
229.8533742313354
 30
0.0
 40
0.0
  0
LINE
  5
280
330
1F
100
AcDbEntity
  8
0
100
AcDbLine
 10
161.5571724254941
 20
90.03551137353963
 30
0.0
 11
161.5571724254941
 21
45.03551137353961
 31
0.0
  0
LINE
  5
287
330
1F
100
AcDbEntity
  8
0
100
AcDbLine
 10
139.5571724254941
 20
87.53551137353963
 30
0.0
 11
143.5571724254941
 21
87.53551137353963
 31
0.0
  0
LINE
  5
288
330
1F
100
AcDbEntity
  8
0
100
AcDbLine
 10
129.5571724254941
 20
87.53551137353963
 30
0.0
 11
133.5571724254941
 21
87.53551137353963
 31
0.0
  0
LINE
  5
289
330
1F
100
AcDbEntity
  8
0
100
AcDbLine
 10
153.5571724254941
 20
87.53551137353963
 30
0.0
 11
149.5571724254941
 21
87.53551137353963
 31
0.0
  0
LINE
  5
28A
330
1F
100
AcDbEntity
  8
0
100
AcDbLine
 10
153.5571724254941
 20
89.03551137353963
 30
0.0
 11
153.5571724254941
 21
87.53551137353963
 31
0.0
  0
LINE
  5
28B
330
1F
100
AcDbEntity
  8
0
100
AcDbLine
 10
149.5571724254941
 20
87.53551137353963
 30
0.0
 11
149.5571724254941
 21
89.03551137353963
 31
0.0
  0
LINE
  5
28C
330
1F
100
AcDbEntity
  8
0
100
AcDbLine
 10
143.5571724254941
 20
87.53551137353963
 30
0.0
 11
143.5571724254941
 21
89.03551137353963
 31
0.0
  0
LINE
  5
28D
330
1F
100
AcDbEntity
  8
0
100
AcDbLine
 10
139.5571724254941
 20
89.03551137353963
 30
0.0
 11
139.5571724254941
 21
87.53551137353963
 31
0.0
  0
LINE
  5
28E
330
1F
100
AcDbEntity
  8
0
100
AcDbLine
 10
133.5571724254941
 20
87.53551137353963
 30
0.0
 11
133.5571724254941
 21
89.03551137353963
 31
0.0
  0
LINE
  5
28F
330
1F
100
AcDbEntity
  8
0
100
AcDbLine
 10
129.5571724254941
 20
89.03551137353963
 30
0.0
 11
129.5571724254941
 21
87.53551137353963
 31
0.0
  0
LINE
  5
2C2
330
1F
100
AcDbEntity
  8
0
100
AcDbLine
 10
37.77105768364083
 20
157.6479396719245
 30
0.0
 11
86.77105768364086
 21
157.6479396719245
 31
0.0
  0
LINE
  5
2CF
330
1F
100
AcDbEntity
  8
0
100
AcDbLine
 10
121.5571724254941
 20
90.03551137353963
 30
0.0
 11
121.5571724254941
 21
45.03551137353963
 31
0.0
  0
LINE
  5
2D9
330
1F
100
AcDbEntity
  8
0
100
AcDbLine
 10
159.4713859878671
 20
82.62129781116658
 30
0.0
 11
156.642958863121
 21
79.79287068642037
 31
0.0
  0
LINE
  5
2DA
330
1F
100
AcDbEntity
  8
0
100
AcDbLine
 10
156.642958863121
 20
85.44972493591274
 30
0.0
 11
153.8145317383748
 21
82.62129781116658
 31
0.0
  0
ARC
  5
2DB
330
1F
100
AcDbEntity
  8
0
100
AcDbCircle
 10
155.2287453007479
 20
81.20708424879348
 30
0.0
 40
2.0
100
AcDbArc
 50
135.0000000000017
 51
315.0000000000002
  0
ARC
  5
2DC
330
1F
100
AcDbEntity
  8
0
100
AcDbCircle
 10
158.0571724254941
 20
84.03551137353963
 30
0.0
 40
2.0
100
AcDbArc
 50
315.0000000000002
 51
135.0000000000017
  0
ARC
  5
2DF
330
1F
100
AcDbEntity
  8
0
100
AcDbCircle
 10
155.2287453007479
 20
53.86393849828576
 30
0.0
 40
2.0
100
AcDbArc
 50
44.99999999999972
 51
224.9999999999997
  0
LINE
  5
2E0
330
1F
100
AcDbEntity
  8
0
100
AcDbLine
 10
156.642958863121
 20
49.6212978111665
 30
0.0
 11
153.8145317383748
 21
52.44972493591266
 31
0.0
  0
LINE
  5
2E1
330
1F
100
AcDbEntity
  8
0
100
AcDbLine
 10
159.4713859878671
 20
52.44972493591266
 30
0.0
 11
156.642958863121
 21
55.27815206065887
 31
0.0
  0
ARC
  5
2E2
330
1F
100
AcDbEntity
  8
0
100
AcDbCircle
 10
158.0571724254941
 20
51.03551137353961
 30
0.0
 40
2.0
100
AcDbArc
 50
224.9999999999997
 51
44.99999999999972
  0
ARC
  5
2E3
330
1F
100
AcDbEntity
  8
0
100
AcDbCircle
 10
127.8855995502402
 20
81.20708424879348
 30
0.0
 40
2.0
100
AcDbArc
 50
225.0000000000026
 51
44.99999999999827
  0
ARC
  5
2E4
330
1F
100
AcDbEntity
  8
0
100
AcDbCircle
 10
127.8855995502402
 20
53.86393849828579
 30
0.0
 40
2.0
100
AcDbArc
 50
314.9999999999993
 51
134.9999999999976
  0
LINE
  5
2E5
330
1F
100
AcDbEntity
  8
0
100
AcDbLine
 10
123.642958863121
 20
52.44972493591268
 30
0.0
 11
126.4713859878673
 21
55.2781520606589
 31
0.0
  0
LINE
  5
2E6
330
1F
100
AcDbEntity
  8
0
100
AcDbLine
 10
126.4713859878673
 20
49.62129781116653
 30
0.0
 11
129.2998131126134
 21
52.44972493591268
 31
0.0
  0
ARC
  5
2E7
330
1F
100
AcDbEntity
  8
0
100
AcDbCircle
 10
125.0571724254941
 20
51.03551137353963
 30
0.0
 40
2.0
100
AcDbArc
 50
134.9999999999999
 51
314.9999999999998
  0
LINE
  5
2E8
330
1F
100
AcDbEntity
  8
0
100
AcDbLine
 10
126.4713859878673
 20
85.44972493591274
 30
0.0
 11
129.2998131126134
 21
82.62129781116658
 31
0.0
  0
LINE
  5
2E9
330
1F
100
AcDbEntity
  8
0
100
AcDbLine
 10
123.642958863121
 20
82.62129781116658
 30
0.0
 11
126.4713859878673
 21
79.79287068642037
 31
0.0
  0
ARC
  5
2EA
330
1F
100
AcDbEntity
  8
0
100
AcDbCircle
 10
125.0571724254941
 20
84.03551137353963
 30
0.0
 40
2.0
100
AcDbArc
 50
44.99999999999856
 51
225.0000000000003
  0
CIRCLE
  5
2EB
330
1F
100
AcDbEntity
  8
0
100
AcDbCircle
 10
141.5571724254941
 20
67.53551137353963
 30
0.0
 40
16.5
  0
LINE
  5
31F
330
1F
100
AcDbEntity
  8
0
100
AcDbLine
 10
136.412328765441
 20
144.1806706543712
 30
0.0
 11
132.412328765441
 21
144.1806706543712
 31
0.0
  0
LINE
  5
320
330
1F
100
AcDbEntity
  8
0
100
AcDbLine
 10
132.412328765441
 20
144.1806706543712
 30
0.0
 11
132.412328765441
 21
142.6806706543712
 31
0.0
  0
LINE
  5
322
330
1F
100
AcDbEntity
  8
0
100
AcDbLine
 10
136.412328765441
 20
142.6806706543712
 30
0.0
 11
136.412328765441
 21
144.1806706543712
 31
0.0
  0
LINE
  5
323
330
1F
100
AcDbEntity
  8
0
100
AcDbLine
 10
146.412328765441
 20
144.1806706543712
 30
0.0
 11
150.412328765441
 21
144.1806706543712
 31
0.0
  0
LINE
  5
324
330
1F
100
AcDbEntity
  8
0
100
AcDbLine
 10
150.412328765441
 20
144.1806706543712
 30
0.0
 11
150.412328765441
 21
142.6806706543712
 31
0.0
  0
LINE
  5
326
330
1F
100
AcDbEntity
  8
0
100
AcDbLine
 10
146.412328765441
 20
142.6806706543712
 30
0.0
 11
146.412328765441
 21
144.1806706543712
 31
0.0
  0
LINE
  5
327
330
1F
100
AcDbEntity
  8
0
100
AcDbLine
 10
132.412328765441
 20
142.6806706543712
 30
0.0
 11
128.412328765441
 21
142.6806706543712
 31
0.0
  0
LINE
  5
328
330
1F
100
AcDbEntity
  8
0
100
AcDbLine
 10
136.412328765441
 20
142.6806706543712
 30
0.0
 11
146.412328765441
 21
142.6806706543712
 31
0.0
  0
LINE
  5
329
330
1F
100
AcDbEntity
  8
0
100
AcDbLine
 10
150.412328765441
 20
142.6806706543712
 30
0.0
 11
154.4123287654411
 21
142.6806706543712
 31
0.0
  0
LINE
  5
32D
330
1F
100
AcDbEntity
  8
0
100
AcDbLine
 10
128.412328765441
 20
110.6806706543712
 30
0.0
 11
128.412328765441
 21
115.6806706543712
 31
0.0
  0
LINE
  5
32E
330
1F
100
AcDbEntity
  8
0
100
AcDbLine
 10
126.912328765441
 20
119.6806706543712
 30
0.0
 11
126.912328765441
 21
115.6806706543712
 31
0.0
  0
LINE
  5
32F
330
1F
100
AcDbEntity
  8
0
100
AcDbLine
 10
126.912328765441
 20
115.6806706543712
 30
0.0
 11
128.412328765441
 21
115.6806706543712
 31
0.0
  0
LINE
  5
331
330
1F
100
AcDbEntity
  8
0
100
AcDbLine
 10
128.412328765441
 20
119.6806706543712
 30
0.0
 11
126.912328765441
 21
119.6806706543712
 31
0.0
  0
LINE
  5
332
330
1F
100
AcDbEntity
  8
0
100
AcDbLine
 10
126.912328765441
 20
133.6806706543712
 30
0.0
 11
126.912328765441
 21
137.6806706543712
 31
0.0
  0
LINE
  5
333
330
1F
100
AcDbEntity
  8
0
100
AcDbLine
 10
126.912328765441
 20
137.6806706543712
 30
0.0
 11
128.412328765441
 21
137.6806706543712
 31
0.0
  0
LINE
  5
335
330
1F
100
AcDbEntity
  8
0
100
AcDbLine
 10
128.412328765441
 20
133.6806706543712
 30
0.0
 11
126.912328765441
 21
133.6806706543712
 31
0.0
  0
LINE
  5
336
330
1F
100
AcDbEntity
  8
0
100
AcDbLine
 10
128.412328765441
 20
142.6806706543712
 30
0.0
 11
128.412328765441
 21
137.6806706543712
 31
0.0
  0
LINE
  5
337
330
1F
100
AcDbEntity
  8
0
100
AcDbLine
 10
128.412328765441
 20
133.6806706543712
 30
0.0
 11
128.412328765441
 21
119.6806706543712
 31
0.0
  0
LINE
  5
338
330
1F
100
AcDbEntity
  8
0
100
AcDbLine
 10
154.4123287654411
 20
110.6806706543712
 30
0.0
 11
154.4123287654411
 21
115.6806706543712
 31
0.0
  0
LINE
  5
339
330
1F
100
AcDbEntity
  8
0
100
AcDbLine
 10
155.9123287654411
 20
119.6806706543712
 30
0.0
 11
155.9123287654411
 21
115.6806706543712
 31
0.0
  0
LINE
  5
33A
330
1F
100
AcDbEntity
  8
0
100
AcDbLine
 10
155.9123287654411
 20
115.6806706543712
 30
0.0
 11
154.4123287654411
 21
115.6806706543712
 31
0.0
  0
LINE
  5
33B
330
1F
100
AcDbEntity
  8
0
100
AcDbLine
 10
154.4123287654411
 20
119.6806706543712
 30
0.0
 11
155.9123287654411
 21
119.6806706543712
 31
0.0
  0
LINE
  5
33C
330
1F
100
AcDbEntity
  8
0
100
AcDbLine
 10
155.9123287654411
 20
133.6806706543712
 30
0.0
 11
155.9123287654411
 21
137.6806706543712
 31
0.0
  0
LINE
  5
33D
330
1F
100
AcDbEntity
  8
0
100
AcDbLine
 10
155.9123287654411
 20
137.6806706543712
 30
0.0
 11
154.4123287654411
 21
137.6806706543712
 31
0.0
  0
LINE
  5
33E
330
1F
100
AcDbEntity
  8
0
100
AcDbLine
 10
154.4123287654411
 20
133.6806706543712
 30
0.0
 11
155.9123287654411
 21
133.6806706543712
 31
0.0
  0
LINE
  5
33F
330
1F
100
AcDbEntity
  8
0
100
AcDbLine
 10
154.4123287654411
 20
142.6806706543712
 30
0.0
 11
154.4123287654411
 21
137.6806706543712
 31
0.0
  0
LINE
  5
340
330
1F
100
AcDbEntity
  8
0
100
AcDbLine
 10
154.4123287654411
 20
133.6806706543712
 30
0.0
 11
154.4123287654411
 21
119.6806706543712
 31
0.0
  0
LINE
  5
341
330
1F
100
AcDbEntity
  8
0
100
AcDbLine
 10
128.412328765441
 20
110.6806706543712
 30
0.0
 11
154.4123287654411
 21
110.6806706543712
 31
0.0
  0
LINE
  5
34A
330
1F
100
AcDbEntity
  8
0
100
AcDbLine
 10
57.27105768364086
 20
4.755493012059162
 30
0.0
 11
53.27105768364086
 21
4.755493012059162
 31
0.0
  0
LINE
  5
34B
330
1F
100
AcDbEntity
  8
0
100
AcDbLine
 10
53.27105768364086
 20
4.755493012059162
 30
0.0
 11
53.27105768364086
 21
3.255493012059162
 31
0.0
  0
LINE
  5
34C
330
1F
100
AcDbEntity
  8
0
100
AcDbLine
 10
53.27105768364086
 20
3.255493012059162
 30
0.0
 11
57.27105768364086
 21
3.255493012059162
 31
0.0
  0
LINE
  5
34D
330
1F
100
AcDbEntity
  8
0
100
AcDbLine
 10
57.27105768364086
 20
3.255493012059162
 30
0.0
 11
57.27105768364086
 21
4.755493012059162
 31
0.0
  0
LINE
  5
34E
330
1F
100
AcDbEntity
  8
0
100
AcDbLine
 10
67.27105768364086
 20
4.755493012059162
 30
0.0
 11
71.27105768364086
 21
4.755493012059162
 31
0.0
  0
LINE
  5
34F
330
1F
100
AcDbEntity
  8
0
100
AcDbLine
 10
71.27105768364086
 20
4.755493012059162
 30
0.0
 11
71.27105768364086
 21
3.255493012059162
 31
0.0
  0
LINE
  5
350
330
1F
100
AcDbEntity
  8
0
100
AcDbLine
 10
71.27105768364086
 20
3.255493012059162
 30
0.0
 11
67.27105768364086
 21
3.255493012059162
 31
0.0
  0
LINE
  5
351
330
1F
100
AcDbEntity
  8
0
100
AcDbLine
 10
67.27105768364086
 20
3.255493012059162
 30
0.0
 11
67.27105768364086
 21
4.755493012059162
 31
0.0
  0
LINE
  5
356
330
1F
100
AcDbEntity
  8
0
100
AcDbLine
 10
132.412328765441
 20
138.6806706543712
 30
0.0
 11
132.412328765441
 21
114.6806706543712
 31
0.0
  0
LINE
  5
357
330
1F
100
AcDbEntity
  8
0
100
AcDbLine
 10
132.412328765441
 20
114.6806706543712
 30
0.0
 11
150.4123287654411
 21
114.6806706543712
 31
0.0
  0
LINE
  5
358
330
1F
100
AcDbEntity
  8
0
100
AcDbLine
 10
150.4123287654411
 20
114.6806706543712
 30
0.0
 11
150.4123287654411
 21
138.6806706543712
 31
0.0
  0
LINE
  5
359
330
1F
100
AcDbEntity
  8
0
100
AcDbLine
 10
150.4123287654411
 20
138.6806706543712
 30
0.0
 11
132.412328765441
 21
138.6806706543712
 31
0.0
  0
LINE
  5
3C3
330
1F
100
AcDbEntity
  8
0
100
AcDbLine
 10
275.0180493473513
 20
66.06552644448234
 30
0.0
 11
275.0180493473513
 21
67.56552644448234
 31
0.0
  0
LINE
  5
3C4
330
1F
100
AcDbEntity
  8
0
100
AcDbLine
 10
279.0180493473513
 20
66.06552644448246
 30
0.0
 11
275.0180493473513
 21
66.06552644448234
 31
0.0
  0
LINE
  5
3C5
330
1F
100
AcDbEntity
  8
0
100
AcDbLine
 10
279.0180493473513
 20
67.56552644448246
 30
0.0
 11
279.0180493473513
 21
66.06552644448246
 31
0.0
  0
LINE
  5
3C6
330
1F
100
AcDbEntity
  8
0
100
AcDbLine
 10
289.9225156842271
 20
66.06552644448246
 30
0.0
 11
289.9225156842271
 21
67.56552644448246
 31
0.0
  0
LINE
  5
3C7
330
1F
100
AcDbEntity
  8
0
100
AcDbLine
 10
293.9225156842271
 20
66.06552644448246
 30
0.0
 11
289.9225156842271
 21
66.06552644448246
 31
0.0
  0
LINE
  5
3C8
330
1F
100
AcDbEntity
  8
0
100
AcDbLine
 10
293.9225156842271
 20
67.56552644448246
 30
0.0
 11
293.9225156842271
 21
66.06552644448246
 31
0.0
  0
LINE
  5
3C9
330
1F
100
AcDbEntity
  8
0
100
AcDbLine
 10
275.0180493473513
 20
67.56552644448234
 30
0.0
 11
273.0351661940398
 21
67.56552644448234
 31
0.0
  0
LINE
  5
3CA
330
1F
100
AcDbEntity
  8
0
100
AcDbLine
 10
293.9225156842271
 20
67.56552644448246
 30
0.0
 11
295.4225156842271
 21
67.56552644448246
 31
0.0
  0
LINE
  5
3CB
330
1F
100
AcDbEntity
  8
0
100
AcDbLine
 10
279.0180493473513
 20
67.56552644448246
 30
0.0
 11
289.9225156842271
 21
67.56552644448246
 31
0.0
  0
LINE
  5
3CD
330
1F
100
AcDbEntity
  8
0
100
AcDbLine
 10
295.4225156842271
 20
67.56552644448246
 30
0.0
 11
295.4225156842271
 21
75.56552644448246
 31
0.0
  0
LINE
  5
3CE
330
1F
100
AcDbEntity
  8
0
100
AcDbLine
 10
295.4225156842271
 20
79.56552644448246
 30
0.0
 11
295.4225156842271
 21
85.56552644448246
 31
0.0
  0
LINE
  5
3CF
330
1F
100
AcDbEntity
  8
0
100
AcDbLine
 10
295.4225156842271
 20
89.56552644448246
 30
0.0
 11
295.4225156842271
 21
95.56552644448246
 31
0.0
  0
LINE
  5
3D0
330
1F
100
AcDbEntity
  8
0
100
AcDbLine
 10
295.4225156842271
 20
99.56552644448246
 30
0.0
 11
295.4225156842271
 21
107.5655264444825
 31
0.0
  0
LINE
  5
3D1
330
1F
100
AcDbEntity
  8
0
100
AcDbLine
 10
296.9225156842271
 20
85.56552644448246
 30
0.0
 11
296.9225156842271
 21
89.56552644448246
 31
0.0
  0
LINE
  5
3D2
330
1F
100
AcDbEntity
  8
0
100
AcDbLine
 10
296.9225156842271
 20
89.56552644448246
 30
0.0
 11
295.4225156842271
 21
89.56552644448246
 31
0.0
  0
LINE
  5
3D3
330
1F
100
AcDbEntity
  8
0
100
AcDbLine
 10
295.4225156842271
 20
85.56552644448246
 30
0.0
 11
296.9225156842271
 21
85.56552644448246
 31
0.0
  0
LINE
  5
3D4
330
1F
100
AcDbEntity
  8
0
100
AcDbLine
 10
296.9225156842271
 20
75.56552644448246
 30
0.0
 11
296.9225156842271
 21
79.56552644448246
 31
0.0
  0
LINE
  5
3D5
330
1F
100
AcDbEntity
  8
0
100
AcDbLine
 10
296.9225156842271
 20
79.56552644448246
 30
0.0
 11
295.4225156842271
 21
79.56552644448246
 31
0.0
  0
LINE
  5
3D6
330
1F
100
AcDbEntity
  8
0
100
AcDbLine
 10
295.4225156842271
 20
75.56552644448246
 30
0.0
 11
296.9225156842271
 21
75.56552644448246
 31
0.0
  0
LINE
  5
3D7
330
1F
100
AcDbEntity
  8
0
100
AcDbLine
 10
296.9225156842271
 20
99.56552644448246
 30
0.0
 11
296.9225156842271
 21
95.56552644448246
 31
0.0
  0
LINE
  5
3D8
330
1F
100
AcDbEntity
  8
0
100
AcDbLine
 10
296.9225156842271
 20
95.56552644448246
 30
0.0
 11
295.4225156842271
 21
95.56552644448246
 31
0.0
  0
LINE
  5
3D9
330
1F
100
AcDbEntity
  8
0
100
AcDbLine
 10
295.4225156842271
 20
99.56552644448246
 30
0.0
 11
296.9225156842271
 21
99.56552644448246
 31
0.0
  0
LINE
  5
3DD
330
1F
100
AcDbEntity
  8
0
100
AcDbLine
 10
206.8041973061155
 20
148.8268983056793
 30
0.0
 11
202.8041973061155
 21
148.8268983056793
 31
0.0
  0
LINE
  5
3DE
330
1F
100
AcDbEntity
  8
0
100
AcDbLine
 10
206.8041973061156
 20
147.3268983056793
 30
0.0
 11
206.8041973061155
 21
148.8268983056793
 31
0.0
  0
LINE
  5
3DF
330
1F
100
AcDbEntity
  8
0
100
AcDbLine
 10
183.3358891497939
 20
147.3268983056793
 30
0.0
 11
183.3358891497938
 21
148.8268983056793
 31
0.0
  0
LINE
  5
3E0
330
1F
100
AcDbEntity
  8
0
100
AcDbLine
 10
183.3358891497938
 20
148.8268983056793
 30
0.0
 11
179.3358891497938
 21
148.8268983056793
 31
0.0
  0
LINE
  5
3E1
330
1F
100
AcDbEntity
  8
0
100
AcDbLine
 10
179.3358891497938
 20
148.8268983056793
 30
0.0
 11
179.3358891497939
 21
147.3268983056793
 31
0.0
  0
LINE
  5
3E2
330
1F
100
AcDbEntity
  8
0
100
AcDbLine
 10
202.8041973061155
 20
148.8268983056793
 30
0.0
 11
202.8041973061156
 21
147.3268983056793
 31
0.0
  0
LINE
  5
3E3
330
1F
100
AcDbEntity
  8
0
100
AcDbLine
 10
176.4021570591367
 20
147.3268983056793
 30
0.0
 11
179.3358891497939
 21
147.3268983056793
 31
0.0
  0
LINE
  5
3E4
330
1F
100
AcDbEntity
  8
0
100
AcDbLine
 10
202.8041973061156
 20
147.3268983056792
 30
0.0
 11
183.3358891497939
 21
147.3268983056793
 31
0.0
  0
LINE
  5
3E5
330
1F
100
AcDbEntity
  8
0
100
AcDbLine
 10
206.8041973061156
 20
147.3268983056793
 30
0.0
 11
210.3041973061156
 21
147.3268983056793
 31
0.0
  0
LINE
  5
3E6
330
1F
100
AcDbEntity
  8
0
100
AcDbLine
 10
206.3041973061156
 20
143.3268983056793
 30
0.0
 11
182.9005229143447
 21
143.3268983056793
 31
0.0
  0
LINE
  5
3E7
330
1F
100
AcDbEntity
  8
0
100
AcDbLine
 10
207.5541973061156
 20
138.3268983056793
 30
0.0
 11
207.5541973061156
 21
142.3268983056793
 31
0.0
  0
LINE
  5
3E8
330
1F
100
AcDbEntity
  8
0
100
AcDbLine
 10
207.5541973061156
 20
142.3268983056793
 30
0.0
 11
209.0541973061156
 21
142.3268983056793
 31
0.0
  0
LINE
  5
3E9
330
1F
100
AcDbEntity
  8
0
100
AcDbLine
 10
209.0541973061156
 20
142.3268983056793
 30
0.0
 11
209.0541973061156
 21
138.3268983056793
 31
0.0
  0
LINE
  5
3EA
330
1F
100
AcDbEntity
  8
0
100
AcDbLine
 10
209.0541973061156
 20
138.3268983056793
 30
0.0
 11
207.5541973061156
 21
138.3268983056793
 31
0.0
  0
ARC
  5
3EB
330
1F
100
AcDbEntity
  8
0
100
AcDbCircle
 10
218.7437566558425
 20
158.2266622805261
 30
0.0
 40
43.72203004339034
100
AcDbArc
 50
194.4359067746407
 51
258.8704744466802
  0
ARC
  5
3EC
330
1F
100
AcDbEntity
  8
0
100
AcDbCircle
 10
218.9877988314903
 20
158.2972834860577
 30
0.0
 40
39.06921954133581
100
AcDbArc
 50
202.5305473854439
 51
251.0559703396355
  0
LINE
  5
3ED
330
1F
100
AcDbEntity
  8
0
100
AcDbLine
 10
207.5541973061156
 20
124.3268983056793
 30
0.0
 11
207.5541973061156
 21
120.3268983056793
 31
0.0
  0
LINE
  5
3EE
330
1F
100
AcDbEntity
  8
0
100
AcDbLine
 10
207.5541973061156
 20
120.3268983056793
 30
0.0
 11
209.0541973061156
 21
120.3268983056793
 31
0.0
  0
LINE
  5
3EF
330
1F
100
AcDbEntity
  8
0
100
AcDbLine
 10
209.0541973061156
 20
120.3268983056793
 30
0.0
 11
209.0541973061156
 21
124.3268983056793
 31
0.0
  0
LINE
  5
3F0
330
1F
100
AcDbEntity
  8
0
100
AcDbLine
 10
209.0541973061156
 20
124.3268983056793
 30
0.0
 11
207.5541973061156
 21
124.3268983056793
 31
0.0
  0
LINE
  5
3F1
330
1F
100
AcDbEntity
  8
0
100
AcDbLine
 10
206.3041973061156
 20
143.3268983056793
 30
0.0
 11
206.3041973061156
 21
121.3442028578528
 31
0.0
  0
LINE
  5
3F2
330
1F
100
AcDbEntity
  8
0
100
AcDbLine
 10
210.3041973061156
 20
147.3268983056793
 30
0.0
 11
210.3041973061156
 21
115.3268983056793
 31
0.0
  0
ARC
  5
3F5
330
1F
100
AcDbEntity
  8
0
100
AcDbCircle
 10
57.03280406633742
 20
79.24286485850202
 30
0.0
 40
35.09711266116242
100
AcDbArc
 50
145.9347150768854
 51
214.0652849231147
  0
ARC
  5
3F7
330
1F
100
AcDbEntity
  8
0
100
AcDbCircle
 10
70.51369837076015
 20
79.24286485850197
 30
0.0
 40
2.999999999999984
100
AcDbArc
 50
135.0000000000008
 51
225.0000000000008
  0
ARC
  5
3F8
330
1F
100
AcDbEntity
  8
0
100
AcDbCircle
 10
67.73879626637682
 20
79.24286485850205
 30
0.0
 40
34.91655804899794
100
AcDbArc
 50
325.7078426685327
 51
34.29215733146724
  0
ARC
  5
3FB
330
1F
100
AcDbEntity
  8
0
100
AcDbCircle
 10
62.27105768364086
 20
87.48550554562127
 30
0.0
 40
2.999999999999984
100
AcDbArc
 50
225.0000000000008
 51
315.0000000000007
  0
ARC
  5
3FD
330
1F
100
AcDbEntity
  8
0
100
AcDbCircle
 10
52.60566973655065
 20
98.98799130504369
 30
0.0
 40
17.76112469013206
100
AcDbArc
 50
117.8172736744409
 51
124.4330609352828
  0
ARC
  5
3FF
330
1F
100
AcDbEntity
  8
0
100
AcDbCircle
 10
62.27105768364089
 20
71.00022417138271
 30
0.0
 40
2.999999999999984
100
AcDbArc
 50
44.99999999999923
 51
134.9999999999992
  0
ARC
  5
401
330
1F
100
AcDbEntity
  8
0
100
AcDbCircle
 10
62.27105768364093
 20
74.24568152331274
 30
0.0
 40
35.28770856265567
100
AcDbArc
 50
236.2326963734409
 51
303.7673036265589
  0
ARC
  5
402
330
1F
100
AcDbEntity
  8
0
100
AcDbCircle
 10
210.9739007800717
 20
61.83829481574801
 30
0.0
 40
2.999999999999984
100
AcDbArc
 50
314.9999999999993
 51
44.99999999999923
  0
LINE
  5
403
330
1F
100
AcDbEntity
  8
0
100
AcDbLine
 10
213.0952211236313
 20
63.95961515930762
 30
0.0
 11
198.466541467191
 21
78.58522292980805
 31
0.0
  0
LINE
  5
404
330
1F
100
AcDbEntity
  8
0
100
AcDbLine
 10
213.0952211236313
 20
59.71697447218841
 30
0.0
 11
198.466541467191
 21
45.09136670168799
 31
0.0
  0
ARC
  5
405
330
1F
100
AcDbEntity
  8
0
100
AcDbCircle
 10
213.7199658422668
 20
61.83829481574804
 30
0.0
 40
34.89391025249076
100
AcDbArc
 50
133.2677875792999
 51
226.7322124207002
  0
LINE
  5
406
330
1F
100
AcDbEntity
  8
0
100
AcDbLine
 10
189.8033628696415
 20
87.2465823408586
 30
0.0
 11
192.966541467191
 21
84.08406798123673
 31
0.0
  0
LINE
  5
407
330
1F
100
AcDbEntity
  8
0
100
AcDbLine
 10
189.8033628696415
 20
36.43000729063748
 30
0.0
 11
192.966541467191
 21
39.59252165025931
 31
0.0
  0
LINE
  5
408
330
1F
100
AcDbEntity
  8
0
100
AcDbLine
 10
225.3378618107506
 20
59.71697447218841
 30
0.0
 11
239.966541467191
 21
45.09136670168798
 31
0.0
  0
LINE
  5
409
330
1F
100
AcDbEntity
  8
0
100
AcDbLine
 10
239.966541467191
 20
45.09136670168797
 30
0.0
 11
239.966541467191
 21
78.58522292980805
 31
0.0
  0
LINE
  5
40A
330
1F
100
AcDbEntity
  8
0
100
AcDbLine
 10
245.466541467191
 20
39.59252165025931
 30
0.0
 11
245.466541467191
 21
84.08406798123673
 31
0.0
  0
ARC
  5
40B
330
1F
100
AcDbEntity
  8
0
100
AcDbCircle
 10
224.7131170921151
 20
61.83829481574804
 30
0.0
 40
34.89391025249076
100
AcDbArc
 50
313.2677875792998
 51
46.73221242070019
  0
LINE
  5
40C
330
1F
100
AcDbEntity
  8
0
100
AcDbLine
 10
248.6297200647404
 20
36.43000729063748
 30
0.0
 11
245.466541467191
 21
39.59252165025931
 31
0.0
  0
ARC
  5
40D
330
1F
100
AcDbEntity
  8
0
100
AcDbCircle
 10
227.4591821543102
 20
61.83829481574801
 30
0.0
 40
2.999999999999984
100
AcDbArc
 50
135.0000000000008
 51
225.0000000000008
  0
LINE
  5
40E
330
1F
100
AcDbEntity
  8
0
100
AcDbLine
 10
225.3378618107506
 20
63.95961515930762
 30
0.0
 11
239.966541467191
 21
78.58522292980805
 31
0.0
  0
LINE
  5
40F
330
1F
100
AcDbEntity
  8
0
100
AcDbLine
 10
248.6297200647404
 20
87.2465823408586
 30
0.0
 11
245.466541467191
 21
84.08406798123673
 31
0.0
  0
ARC
  5
410
330
1F
100
AcDbEntity
  8
0
100
AcDbCircle
 10
219.2165414671909
 20
70.08093550286725
 30
0.0
 40
2.999999999999984
100
AcDbArc
 50
225.0000000000008
 51
315.0000000000007
  0
ARC
  5
411
330
1F
100
AcDbEntity
  8
0
100
AcDbCircle
 10
219.2165414671909
 20
53.59565412862872
 30
0.0
 40
2.999999999999984
100
AcDbArc
 50
44.99999999999923
 51
134.9999999999992
  0
LINE
  5
412
330
1F
100
AcDbEntity
  8
0
100
AcDbLine
 10
217.0952211236313
 20
55.71697447218835
 30
0.0
 11
202.4696133531309
 21
41.08829481574799
 31
0.0
  0
LINE
  5
413
330
1F
100
AcDbEntity
  8
0
100
AcDbLine
 10
221.3378618107505
 20
55.71697447218835
 30
0.0
 11
235.963469581251
 21
41.08829481574799
 31
0.0
  0
LINE
  5
414
330
1F
100
AcDbEntity
  8
0
100
AcDbLine
 10
235.963469581251
 20
41.08829481574799
 30
0.0
 11
202.4696133531309
 21
41.08829481574799
 31
0.0
  0
LINE
  5
415
330
1F
100
AcDbEntity
  8
0
100
AcDbLine
 10
241.4623146326796
 20
35.58829481574799
 30
0.0
 11
196.9707683017022
 21
35.58829481574799
 31
0.0
  0
LINE
  5
416
330
1F
100
AcDbEntity
  8
0
100
AcDbLine
 10
193.8082539420803
 20
32.4251162181985
 30
0.0
 11
196.9707683017022
 21
35.58829481574799
 31
0.0
  0
ARC
  5
417
330
1F
100
AcDbEntity
  8
0
100
AcDbCircle
 10
219.2165414671909
 20
56.34171919082382
 30
0.0
 40
34.89391025249076
100
AcDbArc
 50
223.2677875792998
 51
316.7322124207002
  0
LINE
  5
418
330
1F
100
AcDbEntity
  8
0
100
AcDbLine
 10
244.6248289923014
 20
32.4251162181985
 30
0.0
 11
241.4623146326796
 21
35.58829481574799
 31
0.0
  0
LINE
  5
419
330
1F
100
AcDbEntity
  8
0
100
AcDbLine
 10
221.3378618107505
 20
67.95961515930762
 30
0.0
 11
235.963469581251
 21
82.58829481574799
 31
0.0
  0
LINE
  5
41A
330
1F
100
AcDbEntity
  8
0
100
AcDbLine
 10
235.963469581251
 20
82.58829481574799
 30
0.0
 11
202.4696133531309
 21
82.58829481574799
 31
0.0
  0
LINE
  5
41B
330
1F
100
AcDbEntity
  8
0
100
AcDbLine
 10
241.4623146326796
 20
88.08829481574799
 30
0.0
 11
196.9707683017022
 21
88.08829481574799
 31
0.0
  0
LINE
  5
41C
330
1F
100
AcDbEntity
  8
0
100
AcDbLine
 10
244.6248289923014
 20
91.25147341329748
 30
0.0
 11
241.4623146326796
 21
88.08829481574799
 31
0.0
  0
ARC
  5
41D
330
1F
100
AcDbEntity
  8
0
100
AcDbCircle
 10
219.2165414671909
 20
67.33487044067215
 30
0.0
 40
34.89391025249076
100
AcDbArc
 50
43.26778757929981
 51
136.7322124207002
  0
LINE
  5
41E
330
1F
100
AcDbEntity
  8
0
100
AcDbLine
 10
193.8082539420803
 20
91.25147341329748
 30
0.0
 11
196.9707683017022
 21
88.08829481574799
 31
0.0
  0
LINE
  5
41F
330
1F
100
AcDbEntity
  8
0
100
AcDbLine
 10
217.0952211236313
 20
67.95961515930762
 30
0.0
 11
202.4696133531309
 21
82.58829481574799
 31
0.0
  0
ARC
  5
421
330
1F
100
AcDbEntity
  8
0
100
AcDbCircle
 10
219.216541467191
 20
241.3515409520481
 30
0.0
 40
129.5132461363001
100
AcDbArc
 50
247.337106504755
 51
292.6628934952452
  0
LINE
  5
422
330
1F
100
AcDbEntity
  8
0
100
AcDbLine
 10
231.6288856282664
 20
148.8268983056793
 30
0.0
 11
235.6288856282664
 21
148.8268983056793
 31
0.0
  0
LINE
  5
423
330
1F
100
AcDbEntity
  8
0
100
AcDbLine
 10
231.6288856282663
 20
147.3268983056793
 30
0.0
 11
231.6288856282664
 21
148.8268983056793
 31
0.0
  0
LINE
  5
424
330
1F
100
AcDbEntity
  8
0
100
AcDbLine
 10
255.097193784588
 20
147.3268983056793
 30
0.0
 11
255.0971937845881
 21
148.8268983056793
 31
0.0
  0
LINE
  5
425
330
1F
100
AcDbEntity
  8
0
100
AcDbLine
 10
255.0971937845881
 20
148.8268983056793
 30
0.0
 11
259.0971937845881
 21
148.8268983056793
 31
0.0
  0
LINE
  5
426
330
1F
100
AcDbEntity
  8
0
100
AcDbLine
 10
259.0971937845881
 20
148.8268983056793
 30
0.0
 11
259.097193784588
 21
147.3268983056793
 31
0.0
  0
LINE
  5
427
330
1F
100
AcDbEntity
  8
0
100
AcDbLine
 10
235.6288856282664
 20
148.8268983056793
 30
0.0
 11
235.6288856282663
 21
147.3268983056793
 31
0.0
  0
LINE
  5
428
330
1F
100
AcDbEntity
  8
0
100
AcDbLine
 10
262.0309258752452
 20
147.3268983056793
 30
0.0
 11
259.097193784588
 21
147.3268983056793
 31
0.0
  0
LINE
  5
429
330
1F
100
AcDbEntity
  8
0
100
AcDbLine
 10
235.6288856282663
 20
147.3268983056792
 30
0.0
 11
255.097193784588
 21
147.3268983056793
 31
0.0
  0
LINE
  5
42A
330
1F
100
AcDbEntity
  8
0
100
AcDbLine
 10
231.6288856282663
 20
147.3268983056793
 30
0.0
 11
228.1288856282663
 21
147.3268983056793
 31
0.0
  0
LINE
  5
42B
330
1F
100
AcDbEntity
  8
0
100
AcDbLine
 10
232.1288856282663
 20
143.3268983056793
 30
0.0
 11
255.5325600200372
 21
143.3268983056793
 31
0.0
  0
LINE
  5
42C
330
1F
100
AcDbEntity
  8
0
100
AcDbLine
 10
230.8788856282663
 20
138.3268983056793
 30
0.0
 11
230.8788856282663
 21
142.3268983056793
 31
0.0
  0
LINE
  5
42D
330
1F
100
AcDbEntity
  8
0
100
AcDbLine
 10
230.8788856282663
 20
142.3268983056793
 30
0.0
 11
229.3788856282663
 21
142.3268983056793
 31
0.0
  0
LINE
  5
42E
330
1F
100
AcDbEntity
  8
0
100
AcDbLine
 10
229.3788856282663
 20
142.3268983056793
 30
0.0
 11
229.3788856282663
 21
138.3268983056793
 31
0.0
  0
LINE
  5
42F
330
1F
100
AcDbEntity
  8
0
100
AcDbLine
 10
229.3788856282663
 20
138.3268983056793
 30
0.0
 11
230.8788856282663
 21
138.3268983056793
 31
0.0
  0
ARC
  5
430
330
1F
100
AcDbEntity
  8
0
100
AcDbCircle
 10
219.6893262785394
 20
158.2266622805261
 30
0.0
 40
43.72203004339034
100
AcDbArc
 50
281.1295255533198
 51
345.5640932253593
  0
ARC
  5
431
330
1F
100
AcDbEntity
  8
0
100
AcDbCircle
 10
219.4452841028916
 20
158.2972834860577
 30
0.0
 40
39.06921954133581
100
AcDbArc
 50
288.9440296603645
 51
337.469452614556
  0
LINE
  5
432
330
1F
100
AcDbEntity
  8
0
100
AcDbLine
 10
230.8788856282663
 20
124.3268983056793
 30
0.0
 11
230.8788856282663
 21
120.3268983056793
 31
0.0
  0
LINE
  5
433
330
1F
100
AcDbEntity
  8
0
100
AcDbLine
 10
230.8788856282663
 20
120.3268983056793
 30
0.0
 11
229.3788856282663
 21
120.3268983056793
 31
0.0
  0
LINE
  5
434
330
1F
100
AcDbEntity
  8
0
100
AcDbLine
 10
229.3788856282663
 20
120.3268983056793
 30
0.0
 11
229.3788856282663
 21
124.3268983056793
 31
0.0
  0
LINE
  5
435
330
1F
100
AcDbEntity
  8
0
100
AcDbLine
 10
229.3788856282663
 20
124.3268983056793
 30
0.0
 11
230.8788856282663
 21
124.3268983056793
 31
0.0
  0
LINE
  5
436
330
1F
100
AcDbEntity
  8
0
100
AcDbLine
 10
232.1288856282663
 20
143.3268983056793
 30
0.0
 11
232.1288856282663
 21
121.3442028578528
 31
0.0
  0
LINE
  5
437
330
1F
100
AcDbEntity
  8
0
100
AcDbLine
 10
228.1288856282663
 20
147.3268983056793
 30
0.0
 11
228.1288856282663
 21
115.3268983056793
 31
0.0
  0
LINE
  5
46D
330
1F
100
AcDbEntity
  8
0
100
AcDbLine
 10
161.5571724254941
 20
90.03551137353963
 30
0.0
 11
121.5571724254941
 21
90.03551137353963
 31
0.0
  0
LINE
  5
46E
330
1F
100
AcDbEntity
  8
0
100
AcDbLine
 10
153.5571724254941
 20
89.03551137353963
 30
0.0
 11
149.5571724254941
 21
89.03551137353963
 31
0.0
  0
LINE
  5
46F
330
1F
100
AcDbEntity
  8
0
100
AcDbLine
 10
143.5571724254941
 20
89.03551137353963
 30
0.0
 11
139.5571724254941
 21
89.03551137353963
 31
0.0
  0
LINE
  5
470
330
1F
100
AcDbEntity
  8
0
100
AcDbLine
 10
133.5571724254941
 20
89.03551137353963
 30
0.0
 11
129.5571724254941
 21
89.03551137353963
 31
0.0
  0
LINE
  5
471
330
1F
100
AcDbEntity
  8
0
100
AcDbLine
 10
139.5571724254941
 20
47.53551137353963
 30
0.0
 11
143.5571724254941
 21
47.53551137353963
 31
0.0
  0
LINE
  5
472
330
1F
100
AcDbEntity
  8
0
100
AcDbLine
 10
129.5571724254941
 20
47.53551137353963
 30
0.0
 11
133.5571724254941
 21
47.53551137353963
 31
0.0
  0
LINE
  5
473
330
1F
100
AcDbEntity
  8
0
100
AcDbLine
 10
153.5571724254941
 20
47.53551137353961
 30
0.0
 11
149.5571724254941
 21
47.53551137353963
 31
0.0
  0
LINE
  5
474
330
1F
100
AcDbEntity
  8
0
100
AcDbLine
 10
153.5571724254941
 20
46.03551137353961
 30
0.0
 11
153.5571724254941
 21
47.53551137353961
 31
0.0
  0
LINE
  5
475
330
1F
100
AcDbEntity
  8
0
100
AcDbLine
 10
149.5571724254941
 20
47.53551137353963
 30
0.0
 11
149.5571724254941
 21
46.03551137353963
 31
0.0
  0
LINE
  5
476
330
1F
100
AcDbEntity
  8
0
100
AcDbLine
 10
143.5571724254941
 20
47.53551137353963
 30
0.0
 11
143.5571724254941
 21
46.03551137353963
 31
0.0
  0
LINE
  5
477
330
1F
100
AcDbEntity
  8
0
100
AcDbLine
 10
139.5571724254941
 20
46.03551137353963
 30
0.0
 11
139.5571724254941
 21
47.53551137353963
 31
0.0
  0
LINE
  5
478
330
1F
100
AcDbEntity
  8
0
100
AcDbLine
 10
133.5571724254941
 20
47.53551137353963
 30
0.0
 11
133.5571724254941
 21
46.03551137353963
 31
0.0
  0
LINE
  5
479
330
1F
100
AcDbEntity
  8
0
100
AcDbLine
 10
129.5571724254941
 20
46.03551137353963
 30
0.0
 11
129.5571724254941
 21
47.53551137353963
 31
0.0
  0
LINE
  5
47A
330
1F
100
AcDbEntity
  8
0
100
AcDbLine
 10
161.5571724254941
 20
45.03551137353961
 30
0.0
 11
121.5571724254941
 21
45.03551137353963
 31
0.0
  0
LINE
  5
47B
330
1F
100
AcDbEntity
  8
0
100
AcDbLine
 10
153.5571724254941
 20
46.03551137353961
 30
0.0
 11
149.5571724254941
 21
46.03551137353963
 31
0.0
  0
LINE
  5
47C
330
1F
100
AcDbEntity
  8
0
100
AcDbLine
 10
143.5571724254941
 20
46.03551137353963
 30
0.0
 11
139.5571724254941
 21
46.03551137353963
 31
0.0
  0
LINE
  5
47D
330
1F
100
AcDbEntity
  8
0
100
AcDbLine
 10
133.5571724254941
 20
46.03551137353963
 30
0.0
 11
129.5571724254941
 21
46.03551137353963
 31
0.0
  0
LINE
  5
47E
330
1F
100
AcDbEntity
  8
0
100
AcDbLine
 10
52.10303662601601
 20
32.30354621211119
 30
0.0
 11
53.78982996199972
 21
33.67172302907575
 31
0.0
  0
LINE
  5
47F
330
1F
100
AcDbEntity
  8
0
100
AcDbLine
 10
72.43907874126572
 20
32.30354621211119
 30
0.0
 11
70.75228540528201
 21
33.67172302907575
 31
0.0
  0
CIRCLE
  5
484
330
1F
100
AcDbEntity
  8
0
100
AcDbCircle
 10
61.03297314646564
 20
190.8288884559121
 30
0.0
 40
1.5
  0
CIRCLE
  5
485
330
1F
100
AcDbEntity
  8
0
100
AcDbCircle
 10
105.5329731464656
 20
190.8288884559121
 30
0.0
 40
1.5
  0
CIRCLE
  5
486
330
1F
100
AcDbEntity
  8
0
100
AcDbCircle
 10
105.5329731464656
 20
235.3288884559121
 30
0.0
 40
1.5
  0
CIRCLE
  5
487
330
1F
100
AcDbEntity
  8
0
100
AcDbCircle
 10
61.03297314646564
 20
235.3288884559121
 30
0.0
 40
1.5
  0
LINE
  5
48C
330
1F
100
AcDbEntity
  8
0
100
AcDbLine
 10
58.03297314646564
 20
232.3288884559121
 30
0.0
 11
58.03297314646564
 21
193.8288884559121
 31
0.0
  0
LINE
  5
48D
330
1F
100
AcDbEntity
  8
0
100
AcDbLine
 10
64.03297314646564
 20
187.8288884559121
 30
0.0
 11
102.5329731464656
 21
187.8288884559121
 31
0.0
  0
LINE
  5
48E
330
1F
100
AcDbEntity
  8
0
100
AcDbLine
 10
108.5329731464656
 20
193.8288884559121
 30
0.0
 11
108.5329731464656
 21
232.3288884559121
 31
0.0
  0
LINE
  5
48F
330
1F
100
AcDbEntity
  8
0
100
AcDbLine
 10
102.5329731464656
 20
238.3288884559121
 30
0.0
 11
64.03297314646564
 21
238.3288884559121
 31
0.0
  0
ARC
  5
492
330
1F
100
AcDbEntity
  8
0
100
AcDbCircle
 10
61.03297314646564
 20
235.3288884559121
 30
0.0
 40
3.0
100
AcDbArc
 50
270.0
 51
0.0
  0
ARC
  5
493
330
1F
100
AcDbEntity
  8
0
100
AcDbCircle
 10
61.03297314646564
 20
190.8288884559121
 30
0.0
 40
3.0
100
AcDbArc
 50
0.0
 51
90.0
  0
ARC
  5
494
330
1F
100
AcDbEntity
  8
0
100
AcDbCircle
 10
105.5329731464656
 20
190.8288884559121
 30
0.0
 40
3.0
100
AcDbArc
 50
90.0
 51
180.0
  0
ARC
  5
495
330
1F
100
AcDbEntity
  8
0
100
AcDbCircle
 10
105.5329731464656
 20
235.3288884559121
 30
0.0
 40
3.0
100
AcDbArc
 50
180.0
 51
270.0
  0
LINE
  5
496
330
1F
100
AcDbEntity
  8
0
100
AcDbLine
 10
64.03297314646564
 20
187.8288884559121
 30
0.0
 11
64.03297314646564
 21
190.8288884559121
 31
0.0
  0
LINE
  5
497
330
1F
100
AcDbEntity
  8
0
100
AcDbLine
 10
61.03297314646564
 20
193.8288884559121
 30
0.0
 11
58.03297314646564
 21
193.8288884559121
 31
0.0
  0
LINE
  5
498
330
1F
100
AcDbEntity
  8
0
100
AcDbLine
 10
61.03297314646564
 20
232.3288884559121
 30
0.0
 11
58.03297314646564
 21
232.3288884559121
 31
0.0
  0
LINE
  5
499
330
1F
100
AcDbEntity
  8
0
100
AcDbLine
 10
64.03297314646564
 20
235.3288884559121
 30
0.0
 11
64.03297314646564
 21
238.3288884559121
 31
0.0
  0
LINE
  5
49C
330
1F
100
AcDbEntity
  8
0
100
AcDbLine
 10
105.5329731464656
 20
232.3288884559121
 30
0.0
 11
108.5329731464656
 21
232.3288884559121
 31
0.0
  0
LINE
  5
49D
330
1F
100
AcDbEntity
  8
0
100
AcDbLine
 10
102.5329731464656
 20
235.3288884559121
 30
0.0
 11
102.5329731464656
 21
238.3288884559121
 31
0.0
  0
LINE
  5
49E
330
1F
100
AcDbEntity
  8
0
100
AcDbLine
 10
102.5329731464656
 20
187.8288884559121
 30
0.0
 11
102.5329731464656
 21
190.8288884559121
 31
0.0
  0
LINE
  5
49F
330
1F
100
AcDbEntity
  8
0
100
AcDbLine
 10
105.5329731464656
 20
193.8288884559121
 30
0.0
 11
108.5329731464656
 21
193.8288884559121
 31
0.0
  0
LINE
  5
4B0
330
1F
100
AcDbEntity
  8
0
100
AcDbLine
 10
23.42772151093435
 20
106.797653956383
 30
0.0
 11
22.0024900893162
 21
108.2228853780011
 31
0.0
  0
LINE
  5
4B1
330
1F
100
AcDbEntity
  8
0
100
AcDbLine
 10
22.0024900893162
 20
108.2228853780011
 30
0.0
 11
26.23274666619807
 21
112.453325057305
 31
0.0
  0
LINE
  5
4B2
330
1F
100
AcDbEntity
  8
0
100
AcDbLine
 10
29.06097718910206
 20
115.281372477787
 30
0.0
 11
33.31619858830097
 21
119.5365938769859
 31
0.0
  0
LINE
  5
4B3
330
1F
100
AcDbEntity
  8
0
100
AcDbLine
 10
33.31619858830097
 20
119.5365938769859
 30
0.0
 11
34.74678957385898
 21
118.1060028914279
 31
0.0
  0
LINE
  5
4B4
330
1F
100
AcDbEntity
  8
0
100
AcDbLine
 10
42.27943826027698
 20
110.5733542050099
 30
0.0
 11
44.62990708728576
 21
108.2228853780011
 31
0.0
  0
LINE
  5
4B7
330
1F
100
AcDbEntity
  8
0
100
AcDbLine
 10
33.31619858830097
 20
96.90917687901637
 30
0.0
 11
31.02937381903781
 21
99.19600164827952
 31
0.0
  0
LINE
  5
4B8
330
1F
100
AcDbEntity
  8
0
100
AcDbLine
 10
91.22591677898085
 20
96.90917687901643
 30
0.0
 11
93.51943395477284
 21
99.20269405480846
 31
0.0
  0
LINE
  5
4BB
330
1F
100
AcDbEntity
  8
0
100
AcDbLine
 10
102.5396252779656
 20
108.2228853780012
 30
0.0
 11
98.30936870108371
 21
112.4533250573051
 31
0.0
  0
LINE
  5
4BC
330
1F
100
AcDbEntity
  8
0
100
AcDbLine
 10
101.1143938563474
 20
106.797653956383
 30
0.0
 11
102.5396252779656
 21
108.2228853780012
 31
0.0
  0
LINE
  5
4BD
330
1F
100
AcDbEntity
  8
0
100
AcDbLine
 10
95.48113817817972
 20
115.281372477787
 30
0.0
 11
91.2259167789808
 21
119.5365938769859
 31
0.0
  0
LINE
  5
4BE
330
1F
100
AcDbEntity
  8
0
100
AcDbLine
 10
91.2259167789808
 20
119.5365938769859
 30
0.0
 11
89.79532579342272
 21
118.1060028914278
 31
0.0
  0
LINE
  5
4BF
330
1F
100
AcDbEntity
  8
0
100
AcDbLine
 10
82.25866703749082
 20
110.5693441354959
 30
0.0
 11
79.91220827999604
 21
108.2228853780011
 31
0.0
  0
LINE
  5
4C1
330
1F
100
AcDbEntity
  8
0
100
AcDbLine
 10
33.31619858830097
 20
61.57655283798766
 30
0.0
 11
31.02937381903783
 21
59.28972806872451
 31
0.0
  0
LINE
  5
4C2
330
1F
100
AcDbEntity
  8
0
100
AcDbLine
 10
23.42772151093433
 20
51.68807576062106
 30
0.0
 11
22.0024900893162
 21
50.26284433900292
 31
0.0
  0
LINE
  5
4C3
330
1F
100
AcDbEntity
  8
0
100
AcDbLine
 10
22.0024900893162
 20
50.26284433900292
 30
0.0
 11
26.23274666619807
 21
46.032404659699
 31
0.0
  0
LINE
  5
4C4
330
1F
100
AcDbEntity
  8
0
100
AcDbLine
 10
29.06097718910206
 20
43.20435723921707
 30
0.0
 11
33.31619858830097
 21
38.94913584001816
 31
0.0
  0
LINE
  5
4C5
330
1F
100
AcDbEntity
  8
0
100
AcDbLine
 10
33.31619858830097
 20
38.94913584001816
 30
0.0
 11
34.7467895738589
 21
40.37972682557609
 31
0.0
  0
LINE
  5
4C6
330
1F
100
AcDbEntity
  8
0
100
AcDbLine
 10
42.35482614557893
 20
47.98776339729609
 30
0.0
 11
44.62990708728576
 21
50.26284433900292
 31
0.0
  0
LINE
  5
4C9
330
1F
100
AcDbEntity
  8
0
100
AcDbLine
 10
91.22591677898085
 20
61.57655283798761
 30
0.0
 11
93.51943395477284
 21
59.28303566219562
 31
0.0
  0
LINE
  5
4CB
330
1F
100
AcDbEntity
  8
0
100
AcDbLine
 10
82.18728922170288
 20
47.98776339729604
 30
0.0
 11
79.91220827999604
 21
50.2628443390029
 31
0.0
  0
LINE
  5
4CC
330
1F
100
AcDbEntity
  8
0
100
AcDbLine
 10
91.2259167789808
 20
38.9491358400181
 30
0.0
 11
89.87442327238051
 21
40.30062934661841
 31
0.0
  0
LINE
  5
4CD
330
1F
100
AcDbEntity
  8
0
100
AcDbLine
 10
95.48113817817972
 20
43.20435723921702
 30
0.0
 11
91.2259167789808
 21
38.9491358400181
 31
0.0
  0
LINE
  5
4CE
330
1F
100
AcDbEntity
  8
0
100
AcDbLine
 10
102.5396252779656
 20
50.26284433900285
 30
0.0
 11
98.30936870108371
 21
46.03240465969893
 31
0.0
  0
LINE
  5
4CF
330
1F
100
AcDbEntity
  8
0
100
AcDbLine
 10
101.1143938563474
 20
51.688075760621
 30
0.0
 11
102.5396252779656
 21
50.26284433900285
 31
0.0
  0
LINE
  5
4D2
330
1F
100
AcDbEntity
  8
0
100
AcDbLine
 10
67.71289036197601
 20
242.0589089754112
 30
0.0
 11
98.85305593095526
 21
242.0589089754112
 31
0.0
  0
ARC
  5
4D3
330
1F
100
AcDbEntity
  8
0
100
AcDbCircle
 10
98.85305593095526
 20
247.0589089754112
 30
0.0
 40
5.000000000000002
100
AcDbArc
 50
270.0
 51
315.0
  0
LINE
  5
4D4
330
1F
100
AcDbEntity
  8
0
100
AcDbLine
 10
102.388589836888
 20
243.5233750694784
 30
0.0
 11
112.2378322418055
 21
253.372617474396
 31
0.0
  0
LINE
  5
4D5
330
1F
100
AcDbEntity
  8
0
100
AcDbLine
 10
112.2378322418055
 20
253.372617474396
 30
0.0
 11
123.5515407407903
 21
242.0589089754112
 31
0.0
  0
LINE
  5
4D6
330
1F
100
AcDbEntity
  8
0
100
AcDbLine
 10
123.5515407407903
 20
242.0589089754112
 30
0.0
 11
113.7022983358728
 21
232.2096665704937
 31
0.0
  0
ARC
  5
4D7
330
1F
100
AcDbEntity
  8
0
100
AcDbCircle
 10
117.2378322418056
 20
228.6741326645609
 30
0.0
 40
5.000000000000017
100
AcDbArc
 50
135.0000000000003
 51
180.0000000000001
  0
LINE
  5
4D8
330
1F
100
AcDbEntity
  8
0
100
AcDbLine
 10
112.2378322418056
 20
228.6741326645609
 30
0.0
 11
112.2378322418055
 21
197.4836442472632
 31
0.0
  0
ARC
  5
4D9
330
1F
100
AcDbEntity
  8
0
100
AcDbCircle
 10
117.2378322418055
 20
197.4836442472632
 30
0.0
 40
4.999999999999987
100
AcDbArc
 50
179.9999999999999
 51
225.0000000000001
  0
LINE
  5
4DA
330
1F
100
AcDbEntity
  8
0
100
AcDbLine
 10
113.7022983358728
 20
193.9481103413304
 30
0.0
 11
123.5515407407903
 21
184.098867936413
 31
0.0
  0
LINE
  5
4DB
330
1F
100
AcDbEntity
  8
0
100
AcDbLine
 10
123.5515407407903
 20
184.098867936413
 30
0.0
 11
112.2378322418055
 21
172.7851594374282
 31
0.0
  0
LINE
  5
4DC
330
1F
100
AcDbEntity
  8
0
100
AcDbLine
 10
112.2378322418055
 20
172.7851594374282
 30
0.0
 11
102.388589836888
 21
182.6344018423457
 31
0.0
  0
ARC
  5
4DD
330
1F
100
AcDbEntity
  8
0
100
AcDbCircle
 10
98.85305593095526
 20
179.0988679364129
 30
0.0
 40
5.000000000000016
100
AcDbArc
 50
45.00000000000008
 51
89.99999999999991
  0
LINE
  5
4DE
330
1F
100
AcDbEntity
  8
0
100
AcDbLine
 10
98.85305593095526
 20
184.098867936413
 30
0.0
 11
67.71289036197601
 21
184.098867936413
 31
0.0
  0
ARC
  5
4DF
330
1F
100
AcDbEntity
  8
0
100
AcDbCircle
 10
67.71289036197601
 20
179.098867936413
 30
0.0
 40
5.000000000000007
100
AcDbArc
 50
90.00000000000004
 51
135.0
  0
LINE
  5
4E0
330
1F
100
AcDbEntity
  8
0
100
AcDbLine
 10
64.17735645604327
 20
182.6344018423457
 30
0.0
 11
54.32811405112574
 21
172.7851594374282
 31
0.0
  0
LINE
  5
4E1
330
1F
100
AcDbEntity
  8
0
100
AcDbLine
 10
54.32811405112574
 20
172.7851594374282
 30
0.0
 11
43.01440555214099
 21
184.098867936413
 31
0.0
  0
LINE
  5
4E2
330
1F
100
AcDbEntity
  8
0
100
AcDbLine
 10
43.01440555214099
 20
184.098867936413
 30
0.0
 11
52.86364795705848
 21
193.9481103413304
 31
0.0
  0
ARC
  5
4E3
330
1F
100
AcDbEntity
  8
0
100
AcDbCircle
 10
49.32811405112575
 20
197.4836442472632
 30
0.0
 40
4.999999999999992
100
AcDbArc
 50
314.9999999999998
 51
359.9999999999998
  0
LINE
  5
4E4
330
1F
100
AcDbEntity
  8
0
100
AcDbLine
 10
54.32811405112574
 20
197.4836442472632
 30
0.0
 11
54.32811405112574
 21
228.674132664561
 31
0.0
  0
ARC
  5
4E5
330
1F
100
AcDbEntity
  8
0
100
AcDbCircle
 10
49.32811405112574
 20
228.674132664561
 30
0.0
 40
5.000000000000002
100
AcDbArc
 50
0.0000000000000051
 51
44.99999999999999
  0
LINE
  5
4E6
330
1F
100
AcDbEntity
  8
0
100
AcDbLine
 10
52.86364795705848
 20
232.2096665704937
 30
0.0
 11
43.01440555214099
 21
242.0589089754112
 31
0.0
  0
LINE
  5
4E7
330
1F
100
AcDbEntity
  8
0
100
AcDbLine
 10
43.01440555214099
 20
242.0589089754112
 30
0.0
 11
54.32811405112574
 21
253.372617474396
 31
0.0
  0
LINE
  5
4E8
330
1F
100
AcDbEntity
  8
0
100
AcDbLine
 10
54.32811405112574
 20
253.372617474396
 30
0.0
 11
64.17735645604327
 21
243.5233750694784
 31
0.0
  0
ARC
  5
4E9
330
1F
100
AcDbEntity
  8
0
100
AcDbCircle
 10
67.71289036197601
 20
247.0589089754112
 30
0.0
 40
5.000000000000008
100
AcDbArc
 50
225.0
 51
270.0
  0
LINE
  5
504
330
1F
100
AcDbEntity
  8
0
100
AcDbLine
 10
33.31619858830097
 20
96.90917687901637
 30
0.0
 11
33.42329445910291
 21
97.01627274981831
 31
0.0
  0
ARC
  5
505
330
1F
100
AcDbEntity
  8
0
100
AcDbCircle
 10
36.95882836503564
 20
93.48073884388556
 30
0.0
 40
4.999999999999999
100
AcDbArc
 50
45.00601642064591
 51
134.9999999999998
  0
LINE
  5
506
330
1F
100
AcDbEntity
  8
0
100
AcDbLine
 10
40.49399099796823
 20
97.01664398383447
 30
0.0
 11
56.14973734008126
 21
81.3641852020616
 31
0.0
  0
LINE
  5
507
330
1F
100
AcDbEntity
  8
0
100
AcDbLine
 10
60.14973734008126
 20
85.3641852020616
 30
0.0
 11
44.49689349636681
 21
101.0203166869927
 31
0.0
  0
ARC
  5
508
330
1F
100
AcDbEntity
  8
0
100
AcDbCircle
 10
48.03279863631573
 20
104.5554793199253
 30
0.0
 40
4.999999999999996
100
AcDbArc
 50
134.9999999999999
 51
224.9939835793539
  0
LINE
  5
509
330
1F
100
AcDbEntity
  8
0
100
AcDbLine
 10
44.49726473038299
 20
108.091013225858
 30
0.0
 11
44.62952198490591
 21
108.2232704803809
 31
0.0
  0
LINE
  5
50A
330
1F
100
AcDbEntity
  8
0
100
AcDbLine
 10
64.39237802720052
 20
85.36418520206166
 30
0.0
 11
80.04485067588071
 21
101.0199454139945
 31
0.0
  0
ARC
  5
50B
330
1F
100
AcDbEntity
  8
0
100
AcDbCircle
 10
76.5089455359318
 20
104.5551080469271
 30
0.0
 40
5.000000000000007
100
AcDbArc
 50
315.0060164206459
 51
45.00601642064654
  0
LINE
  5
50C
330
1F
100
AcDbEntity
  8
0
100
AcDbLine
 10
80.04410816886435
 20
108.0910131868761
 30
0.0
 11
79.91220827999604
 21
108.2228853780011
 31
0.0
  0
LINE
  5
50D
330
1F
100
AcDbEntity
  8
0
100
AcDbLine
 10
68.3923780272005
 20
81.36418520206158
 30
0.0
 11
84.04812436931361
 21
97.0166439838345
 31
0.0
  0
ARC
  5
50E
330
1F
100
AcDbEntity
  8
0
100
AcDbCircle
 10
87.58328700224621
 20
93.48073884388559
 30
0.0
 40
5.000000000000005
100
AcDbArc
 50
45.00000000000071
 51
134.9939835793541
  0
LINE
  5
50F
330
1F
100
AcDbEntity
  8
0
100
AcDbLine
 10
91.1188209081789
 20
97.01627274981837
 30
0.0
 11
91.22591677898085
 21
96.90917687901643
 31
0.0
  0
LINE
  5
510
330
1F
100
AcDbEntity
  8
0
100
AcDbLine
 10
68.39237802720055
 20
77.12154451494231
 30
0.0
 11
84.0481243693136
 21
61.46908573316951
 31
0.0
  0
ARC
  5
511
330
1F
100
AcDbEntity
  8
0
100
AcDbCircle
 10
87.58328700224618
 20
65.00499087311842
 30
0.0
 40
4.999999999999996
100
AcDbArc
 50
225.0060164206461
 51
314.9999999999998
  0
LINE
  5
512
330
1F
100
AcDbEntity
  8
0
100
AcDbLine
 10
91.11882090817889
 20
61.46945696718566
 30
0.0
 11
91.22591677898085
 21
61.57655283798761
 31
0.0
  0
LINE
  5
513
330
1F
100
AcDbEntity
  8
0
100
AcDbLine
 10
79.91220827999604
 20
50.2628443390029
 30
0.0
 11
80.04410816886438
 21
50.39471653012794
 31
0.0
  0
ARC
  5
514
330
1F
100
AcDbEntity
  8
0
100
AcDbCircle
 10
76.50894553593182
 20
53.93062167007687
 30
0.0
 40
4.999999999999998
100
AcDbArc
 50
314.9939835793537
 51
44.99398357935407
  0
LINE
  5
515
330
1F
100
AcDbEntity
  8
0
100
AcDbLine
 10
80.04485067588072
 20
57.46578430300946
 30
0.0
 11
64.39237802720055
 21
73.12154451494231
 31
0.0
  0
LINE
  5
516
330
1F
100
AcDbEntity
  8
0
100
AcDbLine
 10
44.62990708728576
 20
50.26284433900292
 30
0.0
 11
44.49800719841738
 21
50.39471653012799
 31
0.0
  0
ARC
  5
517
330
1F
100
AcDbEntity
  8
0
100
AcDbCircle
 10
48.03316983134997
 20
53.9306216700769
 30
0.0
 40
5.0
100
AcDbArc
 50
135.0060164206458
 51
225.0060164206459
  0
LINE
  5
518
330
1F
100
AcDbEntity
  8
0
100
AcDbLine
 10
44.49726469140106
 20
57.46578430300949
 30
0.0
 11
60.14973734008129
 21
73.12154451494237
 31
0.0
  0
LINE
  5
519
330
1F
100
AcDbEntity
  8
0
100
AcDbLine
 10
33.31619858830097
 20
61.57655283798766
 30
0.0
 11
33.42329445910292
 21
61.46945696718572
 31
0.0
  0
ARC
  5
51A
330
1F
100
AcDbEntity
  8
0
100
AcDbCircle
 10
36.95882836503564
 20
65.00499087311847
 30
0.0
 40
4.999999999999996
100
AcDbArc
 50
225.0000000000003
 51
314.9939835793539
  0
LINE
  5
51B
330
1F
100
AcDbEntity
  8
0
100
AcDbLine
 10
40.49399099796822
 20
61.46908573316956
 30
0.0
 11
56.1497373400812
 21
77.12154451494234
 31
0.0
  0
CIRCLE
  5
607
330
1F
100
AcDbEntity
  8
0
100
AcDbCircle
 10
-25.7847397981027
 20
235.3288884559121
 30
0.0
 40
1.5
  0
CIRCLE
  5
608
330
1F
100
AcDbEntity
  8
0
100
AcDbCircle
 10
18.71526020189725
 20
235.3288884559121
 30
0.0
 40
1.5
  0
CIRCLE
  5
609
330
1F
100
AcDbEntity
  8
0
100
AcDbCircle
 10
18.71526020189725
 20
190.8288884559121
 30
0.0
 40
1.5
  0
CIRCLE
  5
60A
330
1F
100
AcDbEntity
  8
0
100
AcDbCircle
 10
-25.7847397981027
 20
190.8288884559121
 30
0.0
 40
1.5
  0
LINE
  5
612
330
1F
100
AcDbEntity
  8
0
100
AcDbLine
 10
-25.7847397981027
 20
231.6165001076976
 30
0.0
 11
-25.7847397981027
 21
216.4475484363388
 31
0.0
  0
LINE
  5
614
330
1F
100
AcDbEntity
  8
0
100
AcDbLine
 10
-22.0723514498882
 20
235.3288884559121
 30
0.0
 11
-6.903399778529428
 21
235.3288884559121
 31
0.0
  0
LINE
  5
615
330
1F
100
AcDbEntity
  8
0
100
AcDbLine
 10
-6.90339977852943
 20
216.4475484363388
 30
0.0
 11
-6.903399778529428
 21
235.3288884559121
 31
0.0
  0
LINE
  5
616
330
1F
100
AcDbEntity
  8
0
100
AcDbLine
 10
-6.90339977852943
 20
216.4475484363388
 30
0.0
 11
-25.7847397981027
 21
216.4475484363388
 31
0.0
  0
ARC
  5
617
330
1F
100
AcDbEntity
  8
0
100
AcDbCircle
 10
-25.7847397981027
 20
235.3288884559121
 30
0.0
 40
3.712388348214517
100
AcDbArc
 50
270.0
 51
0.0
  0
LINE
  5
61A
330
1F
100
AcDbEntity
  8
0
100
AcDbLine
 10
-0.1660798176760165
 20
216.4475484363388
 30
0.0
 11
-0.1660798176760165
 21
235.3288884559121
 31
0.0
  0
LINE
  5
61B
330
1F
100
AcDbEntity
  8
0
100
AcDbLine
 10
-0.1660798176760165
 20
216.4475484363388
 30
0.0
 11
18.71526020189725
 21
216.4475484363388
 31
0.0
  0
LINE
  5
61C
330
1F
100
AcDbEntity
  8
0
100
AcDbLine
 10
18.71526020189726
 20
231.6165001076976
 30
0.0
 11
18.71526020189725
 21
216.4475484363388
 31
0.0
  0
ARC
  5
61D
330
1F
100
AcDbEntity
  8
0
100
AcDbCircle
 10
18.71526020189726
 20
235.3288884559121
 30
0.0
 40
3.712388348214517
100
AcDbArc
 50
180.0
 51
270.0
  0
LINE
  5
61E
330
1F
100
AcDbEntity
  8
0
100
AcDbLine
 10
15.00287185368275
 20
235.3288884559121
 30
0.0
 11
-0.1660798176760165
 21
235.3288884559121
 31
0.0
  0
LINE
  5
61F
330
1F
100
AcDbEntity
  8
0
100
AcDbLine
 10
-0.1660798176760165
 20
209.7102284754854
 30
0.0
 11
18.71526020189725
 21
209.7102284754854
 31
0.0
  0
LINE
  5
620
330
1F
100
AcDbEntity
  8
0
100
AcDbLine
 10
-0.1660798176760165
 20
209.7102284754854
 30
0.0
 11
-0.1660798176760165
 21
190.8288884559121
 31
0.0
  0
LINE
  5
621
330
1F
100
AcDbEntity
  8
0
100
AcDbLine
 10
-6.90339977852943
 20
209.7102284754854
 30
0.0
 11
-6.903399778529428
 21
190.8288884559121
 31
0.0
  0
LINE
  5
622
330
1F
100
AcDbEntity
  8
0
100
AcDbLine
 10
-6.90339977852943
 20
209.7102284754854
 30
0.0
 11
-25.7847397981027
 21
209.7102284754854
 31
0.0
  0
LINE
  5
623
330
1F
100
AcDbEntity
  8
0
100
AcDbLine
 10
-25.7847397981027
 20
194.5412768041266
 30
0.0
 11
-25.7847397981027
 21
209.7102284754854
 31
0.0
  0
ARC
  5
624
330
1F
100
AcDbEntity
  8
0
100
AcDbCircle
 10
-25.7847397981027
 20
190.8288884559121
 30
0.0
 40
3.712388348214517
100
AcDbArc
 50
0.0
 51
90.0
  0
LINE
  5
625
330
1F
100
AcDbEntity
  8
0
100
AcDbLine
 10
-22.0723514498882
 20
190.8288884559121
 30
0.0
 11
-6.903399778529428
 21
190.8288884559121
 31
0.0
  0
LINE
  5
626
330
1F
100
AcDbEntity
  8
0
100
AcDbLine
 10
15.00287185368275
 20
190.8288884559121
 30
0.0
 11
-0.1660798176760165
 21
190.8288884559121
 31
0.0
  0
ARC
  5
627
330
1F
100
AcDbEntity
  8
0
100
AcDbCircle
 10
18.71526020189726
 20
190.8288884559121
 30
0.0
 40
3.712388348214517
100
AcDbArc
 50
90.0
 51
180.0
  0
LINE
  5
628
330
1F
100
AcDbEntity
  8
0
100
AcDbLine
 10
18.71526020189726
 20
194.5412768041266
 30
0.0
 11
18.71526020189726
 21
209.7102284754854
 31
0.0
  0
LINE
  5
629
330
1F
100
AcDbEntity
  8
0
100
AcDbLine
 10
-30.53473979810272
 20
188.0788884559121
 30
0.0
 11
-30.53473979810272
 21
238.0788884559121
 31
0.0
  0
ARC
  5
62A
330
1F
100
AcDbEntity
  8
0
100
AcDbCircle
 10
-28.53473979810272
 20
238.0788884559121
 30
0.0
 40
2.0
100
AcDbArc
 50
90.0
 51
180.0
  0
LINE
  5
62B
330
1F
100
AcDbEntity
  8
0
100
AcDbLine
 10
-28.53473979810272
 20
240.0788884559121
 30
0.0
 11
21.46526020189727
 21
240.0788884559121
 31
0.0
  0
ARC
  5
62C
330
1F
100
AcDbEntity
  8
0
100
AcDbCircle
 10
21.46526020189727
 20
238.0788884559121
 30
0.0
 40
2.0
100
AcDbArc
 50
0.0
 51
90.0
  0
LINE
  5
62D
330
1F
100
AcDbEntity
  8
0
100
AcDbLine
 10
23.46526020189727
 20
238.0788884559121
 30
0.0
 11
23.46526020189727
 21
188.0788884559121
 31
0.0
  0
ARC
  5
62E
330
1F
100
AcDbEntity
  8
0
100
AcDbCircle
 10
21.46526020189727
 20
188.0788884559121
 30
0.0
 40
2.0
100
AcDbArc
 50
270.0
 51
0.0
  0
LINE
  5
62F
330
1F
100
AcDbEntity
  8
0
100
AcDbLine
 10
21.46526020189727
 20
186.0788884559121
 30
0.0
 11
-28.53473979810272
 21
186.0788884559121
 31
0.0
  0
ARC
  5
630
330
1F
100
AcDbEntity
  8
0
100
AcDbCircle
 10
-28.53473979810272
 20
188.0788884559121
 30
0.0
 40
2.0
100
AcDbArc
 50
180.0
 51
270.0
  0
LINE
  5
645
330
1F
100
AcDbEntity
  8
0
100
AcDbLine
 10
275.0180493473513
 20
54.38159213042533
 30
0.0
 11
275.0180493473513
 21
52.88159213042533
 31
0.0
  0
LINE
  5
646
330
1F
100
AcDbEntity
  8
0
100
AcDbLine
 10
279.0180493473513
 20
54.38159213042522
 30
0.0
 11
275.0180493473513
 21
54.38159213042533
 31
0.0
  0
LINE
  5
647
330
1F
100
AcDbEntity
  8
0
100
AcDbLine
 10
279.0180493473513
 20
52.88159213042522
 30
0.0
 11
279.0180493473513
 21
54.38159213042522
 31
0.0
  0
LINE
  5
648
330
1F
100
AcDbEntity
  8
0
100
AcDbLine
 10
289.9225156842271
 20
54.38159213042522
 30
0.0
 11
289.9225156842271
 21
52.88159213042522
 31
0.0
  0
LINE
  5
649
330
1F
100
AcDbEntity
  8
0
100
AcDbLine
 10
293.9225156842271
 20
54.38159213042522
 30
0.0
 11
289.9225156842271
 21
54.38159213042522
 31
0.0
  0
LINE
  5
64A
330
1F
100
AcDbEntity
  8
0
100
AcDbLine
 10
293.9225156842271
 20
52.88159213042522
 30
0.0
 11
293.9225156842271
 21
54.38159213042522
 31
0.0
  0
LINE
  5
64B
330
1F
100
AcDbEntity
  8
0
100
AcDbLine
 10
275.0180493473513
 20
52.88159213042533
 30
0.0
 11
273.0351661940398
 21
52.88159213042533
 31
0.0
  0
LINE
  5
64C
330
1F
100
AcDbEntity
  8
0
100
AcDbLine
 10
293.9225156842271
 20
52.88159213042522
 30
0.0
 11
295.4225156842271
 21
52.88159213042522
 31
0.0
  0
LINE
  5
64D
330
1F
100
AcDbEntity
  8
0
100
AcDbLine
 10
279.0180493473513
 20
52.88159213042522
 30
0.0
 11
289.9225156842271
 21
52.88159213042522
 31
0.0
  0
LINE
  5
64E
330
1F
100
AcDbEntity
  8
0
100
AcDbLine
 10
295.4225156842271
 20
52.88159213042522
 30
0.0
 11
295.4225156842271
 21
44.88159213042522
 31
0.0
  0
LINE
  5
64F
330
1F
100
AcDbEntity
  8
0
100
AcDbLine
 10
295.4225156842271
 20
40.88159213042522
 30
0.0
 11
295.4225156842271
 21
34.88159213042522
 31
0.0
  0
LINE
  5
650
330
1F
100
AcDbEntity
  8
0
100
AcDbLine
 10
295.4225156842271
 20
30.88159213042522
 30
0.0
 11
295.4225156842271
 21
24.88159213042522
 31
0.0
  0
LINE
  5
651
330
1F
100
AcDbEntity
  8
0
100
AcDbLine
 10
295.4225156842271
 20
20.88159213042522
 30
0.0
 11
295.4225156842271
 21
12.88159213042518
 31
0.0
  0
LINE
  5
652
330
1F
100
AcDbEntity
  8
0
100
AcDbLine
 10
296.9225156842271
 20
34.88159213042522
 30
0.0
 11
296.9225156842271
 21
30.88159213042522
 31
0.0
  0
LINE
  5
653
330
1F
100
AcDbEntity
  8
0
100
AcDbLine
 10
296.9225156842271
 20
30.88159213042522
 30
0.0
 11
295.4225156842271
 21
30.88159213042522
 31
0.0
  0
LINE
  5
654
330
1F
100
AcDbEntity
  8
0
100
AcDbLine
 10
295.4225156842271
 20
34.88159213042522
 30
0.0
 11
296.9225156842271
 21
34.88159213042522
 31
0.0
  0
LINE
  5
655
330
1F
100
AcDbEntity
  8
0
100
AcDbLine
 10
296.9225156842271
 20
44.88159213042522
 30
0.0
 11
296.9225156842271
 21
40.88159213042522
 31
0.0
  0
LINE
  5
656
330
1F
100
AcDbEntity
  8
0
100
AcDbLine
 10
296.9225156842271
 20
40.88159213042522
 30
0.0
 11
295.4225156842271
 21
40.88159213042522
 31
0.0
  0
LINE
  5
657
330
1F
100
AcDbEntity
  8
0
100
AcDbLine
 10
295.4225156842271
 20
44.88159213042522
 30
0.0
 11
296.9225156842271
 21
44.88159213042522
 31
0.0
  0
LINE
  5
658
330
1F
100
AcDbEntity
  8
0
100
AcDbLine
 10
296.9225156842271
 20
20.88159213042522
 30
0.0
 11
296.9225156842271
 21
24.88159213042522
 31
0.0
  0
LINE
  5
659
330
1F
100
AcDbEntity
  8
0
100
AcDbLine
 10
296.9225156842271
 20
24.88159213042522
 30
0.0
 11
295.4225156842271
 21
24.88159213042522
 31
0.0
  0
LINE
  5
65A
330
1F
100
AcDbEntity
  8
0
100
AcDbLine
 10
295.4225156842271
 20
20.88159213042522
 30
0.0
 11
296.9225156842271
 21
20.88159213042522
 31
0.0
  0
ARC
  5
669
330
1F
100
AcDbEntity
  8
0
100
AcDbCircle
 10
108.0177210697943
 20
160.2396840163752
 30
0.0
 40
21.40415482544228
100
AcDbArc
 50
186.9547851580078
 51
281.1958215428003
  0
LINE
  5
66B
330
1F
100
AcDbEntity
  8
0
100
AcDbLine
 10
45.25068881225029
 20
114.9277655894813
 30
0.0
 11
79.2870131775905
 21
114.9277655894813
 31
0.0
  0
ARC
  5
66C
330
1F
100
AcDbEntity
  8
0
100
AcDbCircle
 10
71.60171042592619
 20
98.4945303489451
 30
0.0
 40
18.35182429863394
100
AcDbArc
 50
55.58088009388392
 51
61.96592048427788
  0
CIRCLE
  5
66F
330
1F
100
AcDbEntity
  8
0
100
AcDbCircle
 10
86.2721377074423
 20
146.2158681291022
 30
0.0
 40
1.5
  0
ARC
  5
69B
330
1F
100
AcDbEntity
  8
0
100
AcDbCircle
 10
36.1610031362321
 20
119.5202164538009
 30
0.0
 40
2.0
100
AcDbArc
 50
224.9999999999992
 51
302.9535860811654
  0
ARC
  5
69C
330
1F
100
AcDbEntity
  8
0
100
AcDbCircle
 10
43.69365182265007
 20
111.987567767383
 30
0.0
 40
2.0
100
AcDbArc
 50
124.4330609352828
 51
224.9999999999999
  0
ARC
  5
69D
330
1F
100
AcDbEntity
  8
0
100
AcDbCircle
 10
29.61516025666472
 20
97.78178808590641
 30
0.0
 40
2.0
100
AcDbArc
 50
45.00000000000015
 51
145.9347150768854
  0
ARC
  5
69E
330
1F
100
AcDbEntity
  8
0
100
AcDbCircle
 10
22.01350794856126
 20
105.3834403940099
 30
0.0
 40
2.0
100
AcDbArc
 50
327.0029861951509
 51
45.00000000000004
  0
ARC
  5
6A0
330
1F
100
AcDbEntity
  8
0
100
AcDbCircle
 10
18.98130165050582
 20
97.54578873944652
 30
0.0
 40
1.000000000000005
100
AcDbArc
 50
188.0616217338782
 51
337.0813417021087
  0
ARC
  5
6A1
330
1F
100
AcDbEntity
  8
0
100
AcDbCircle
 10
18.98130165050583
 20
60.93994097755716
 30
0.0
 40
0.9999999999999957
100
AcDbArc
 50
22.91865829789083
 51
171.9383782661213
  0
ARC
  5
6A2
330
1F
100
AcDbEntity
  8
0
100
AcDbCircle
 10
105.5608137167759
 20
60.93994097755721
 30
0.0
 40
0.9999999999999865
100
AcDbArc
 50
8.061621733877994
 51
157.0813417021098
  0
ARC
  5
6A3
330
1F
100
AcDbEntity
  8
0
100
AcDbCircle
 10
-105.5608137167759
 20
97.54578873944648
 30
0.0
 40
1.000000000000006
210
0.0
220
0.0
230
-1.0
100
AcDbArc
 50
188.0616217338799
 51
337.081341702109
  0
ARC
  5
6A4
330
1F
100
AcDbEntity
  8
0
100
AcDbCircle
 10
-80.76260785843552
 20
122.4523843204567
 30
0.0
 40
1.000000000000008
210
0.0
220
0.0
230
-1.0
100
AcDbArc
 50
293.1685441691889
 51
81.1230557688032
  0
ARC
  5
6A5
330
1F
100
AcDbEntity
  8
0
100
AcDbCircle
 10
43.77950750884624
 20
122.4523843204567
 30
0.0
 40
0.9999999999999998
100
AcDbArc
 50
293.1685441691877
 51
81.12305576880448
  0
ARC
  5
6A6
330
1F
100
AcDbEntity
  8
0
100
AcDbCircle
 10
-43.96813380269627
 20
35.95310882536677
 30
0.0
 40
0.9999999999999999
210
0.0
220
0.0
230
-1.0
100
AcDbArc
 50
112.9186582978898
 51
261.9383782661213
  0
ARC
  5
6A7
330
1F
100
AcDbEntity
  8
0
100
AcDbCircle
 10
-80.90707366680252
 20
35.90549234150339
 30
0.0
 40
0.9999999999999976
210
0.0
220
0.0
230
-1.0
100
AcDbArc
 50
278.2093369666127
 51
68.9322640166922
  0
ARC
  5
6A8
330
1F
100
AcDbEntity
  8
0
100
AcDbCircle
 10
-23.30425501830874
 20
26.19284880588981
 30
0.0
 40
1.000000000000002
210
0.0
220
0.0
230
-1.0
100
AcDbArc
 50
276.0714554979925
 51
72.34935344748553
  0
ARC
  5
6A9
330
1F
100
AcDbEntity
  8
0
100
AcDbCircle
 10
101.237860348973
 20
26.19284880588981
 30
0.0
 40
1.000000000000001
100
AcDbArc
 50
276.0714554979919
 51
72.3493534474852
  0
ARC
  5
6AA
330
1F
100
AcDbEntity
  8
0
100
AcDbCircle
 10
48.29432973971657
 20
13.76862079780413
 30
0.0
 40
0.9999999999999997
100
AcDbArc
 50
223.2014034964631
 51
356.30730962195
  0
ARC
  5
6AB
330
1F
100
AcDbEntity
  8
0
100
AcDbCircle
 10
-76.24778562756515
 20
13.76862079780415
 30
0.0
 40
0.9999999999999923
210
0.0
220
0.0
230
-1.0
100
AcDbArc
 50
223.2014034964626
 51
356.3073096219504
  0
ARC
  5
6AC
330
1F
100
AcDbEntity
  8
0
100
AcDbCircle
 10
79.78736842378981
 20
31.04353504930162
 30
0.0
 40
1.000000000000035
100
AcDbArc
 50
82.16622081586377
 51
153.1483544561113
  0
ARC
  5
6AD
330
1F
100
AcDbEntity
  8
0
100
AcDbCircle
 10
44.75474694349192
 20
31.04353504930164
 30
0.0
 40
1.00000000000002
100
AcDbArc
 50
26.85164554388811
 51
97.83377918413717
  0
ARC
  5
6AE
330
1F
100
AcDbEntity
  8
0
100
AcDbCircle
 10
29.61516025666473
 20
60.70394163109761
 30
0.0
 40
2.0
100
AcDbArc
 50
214.0652849231146
 51
315.0
  0
ARC
  5
6AF
330
1F
100
AcDbEntity
  8
0
100
AcDbCircle
 10
43.76903970795202
 20
46.57354983492299
 30
0.0
 40
2.0
100
AcDbArc
 50
135.0
 51
236.2326963734409
  0
ARC
  5
6B0
330
1F
100
AcDbEntity
  8
0
100
AcDbCircle
 10
80.77307565932979
 20
46.57354983492295
 30
0.0
 40
2.0
100
AcDbArc
 50
303.7673036265589
 51
44.99999999999984
  0
ARC
  5
6B1
330
1F
100
AcDbEntity
  8
0
100
AcDbCircle
 10
94.93364751714594
 20
60.69724922456871
 30
0.0
 40
2.0
100
AcDbArc
 50
224.9999999999999
 51
325.7078426685327
  0
ARC
  5
6B2
330
1F
100
AcDbEntity
  8
0
100
AcDbCircle
 10
94.93364751714594
 20
97.78848049243537
 30
0.0
 40
2.0
100
AcDbArc
 50
34.29215733146725
 51
135.0000000000003
  0
ARC
  5
6B3
330
1F
100
AcDbEntity
  8
0
100
AcDbCircle
 10
80.84445347511773
 20
111.983557697869
 30
0.0
 40
2.0
100
AcDbArc
 50
315.0000000000001
 51
55.58088009388392
  0
ARC
  5
6B4
330
1F
100
AcDbEntity
  8
0
100
AcDbCircle
 10
45.25068881225029
 20
112.9277655894813
 30
0.0
 40
2.0
100
AcDbArc
 50
90.0
 51
117.8172736744409
  0
ARC
  5
6B5
330
1F
100
AcDbEntity
  8
0
100
AcDbCircle
 10
79.2870131775905
 20
112.9277655894813
 30
0.0
 40
2.0
100
AcDbArc
 50
61.96592048427785
 51
89.99999999999982
  0
ARC
  5
6B6
330
1F
100
AcDbEntity
  8
0
100
AcDbCircle
 10
88.38111223104964
 20
119.5202164538009
 30
0.0
 40
2.0
100
AcDbArc
 50
237.0464139188347
 51
314.9999999999998
  0
ARC
  5
6B7
330
1F
100
AcDbEntity
  8
0
100
AcDbCircle
 10
102.5286074187205
 20
105.3834403940099
 30
0.0
 40
2.0
100
AcDbArc
 50
134.9999999999998
 51
212.9970138048477
  0
ARC
  5
6B8
330
1F
100
AcDbEntity
  8
0
100
AcDbCircle
 10
102.5286074187206
 20
53.1022893229941
 30
0.0
 40
2.0
100
AcDbArc
 50
147.0029861951505
 51
224.9999999999998
  0
ARC
  5
6B9
330
1F
100
AcDbEntity
  8
0
100
AcDbCircle
 10
88.4602097100074
 20
38.88641578424532
 30
0.0
 40
2.0
100
AcDbArc
 50
44.99999999999972
 51
126.0335687550669
  0
ARC
  5
6BA
330
1F
100
AcDbEntity
  8
0
100
AcDbCircle
 10
36.161003136232
 20
38.965513263203
 30
0.0
 40
2.0
100
AcDbArc
 50
57.04641391883069
 51
135.0000000000001
  0
ARC
  5
6BB
330
1F
100
AcDbEntity
  8
0
100
AcDbCircle
 10
22.01350794856122
 20
53.10228932299415
 30
0.0
 40
2.0
100
AcDbArc
 50
315.0000000000002
 51
32.99701380485077
  0
ARC
  5
6BD
330
1F
100
AcDbEntity
  8
0
100
AcDbCircle
 10
176.0070220052362
 20
80.32984499054234
 30
0.0
 40
1.000000000000002
100
AcDbArc
 50
188.8769442311959
 51
336.831455830813
  0
ARC
  5
6BE
330
1F
100
AcDbEntity
  8
0
100
AcDbCircle
 10
200.7249912923964
 20
105.0478142777027
 30
0.0
 40
1.000000000000003
100
AcDbArc
 50
293.1685441691881
 51
81.12305576880402
  0
ARC
  5
6BF
330
1F
100
AcDbEntity
  8
0
100
AcDbCircle
 10
-237.7080916419855
 20
105.0478142777027
 30
0.0
 40
1.000000000000003
210
0.0
220
0.0
230
-1.0
100
AcDbArc
 50
293.1685441691881
 51
81.12305576880402
  0
ARC
  5
6C0
330
1F
100
AcDbEntity
  8
0
100
AcDbCircle
 10
262.4260609291458
 20
80.32984499054224
 30
0.0
 40
1.000000000000021
100
AcDbArc
 50
203.1685441691885
 51
351.123055768803
  0
ARC
  5
6C1
330
1F
100
AcDbEntity
  8
0
100
AcDbCircle
 10
-176.0070220052362
 20
43.34674464095367
 30
0.0
 40
1.000000000000004
210
0.0
220
0.0
230
-1.0
100
AcDbArc
 50
8.876944231196745
 51
156.8314558308118
  0
ARC
  5
6C2
330
1F
100
AcDbEntity
  8
0
100
AcDbCircle
 10
-200.7249912923965
 20
18.62877535379326
 30
0.0
 40
0.9999999999999816
210
0.0
220
0.0
230
-1.0
100
AcDbArc
 50
113.1685441691868
 51
261.1230557688057
  0
ARC
  5
6C3
330
1F
100
AcDbEntity
  8
0
100
AcDbCircle
 10
237.7080916419854
 20
18.62877535379326
 30
0.0
 40
0.9999999999999816
100
AcDbArc
 50
113.1685441691868
 51
261.1230557688057
  0
ARC
  5
6C4
330
1F
100
AcDbEntity
  8
0
100
AcDbCircle
 10
-262.4260609291458
 20
43.34674464095379
 30
0.0
 40
1.000000000000016
210
0.0
220
0.0
230
-1.0
100
AcDbArc
 50
23.16854416918779
 51
171.1230557688034
  0
ARC
  5
6C6
330
1F
100
AcDbEntity
  8
0
100
AcDbCircle
 10
170.0084701513634
 20
106.0966186632698
 30
0.0
 40
1.5
100
AcDbArc
 50
45.0000000000002
 51
199.4898945582104
  0
ARC
  5
6C7
330
1F
100
AcDbEntity
  8
0
100
AcDbCircle
 10
174.9582176196694
 20
111.0463661315754
 30
0.0
 40
1.5
100
AcDbArc
 50
70.51010544178955
 51
225.0000000000002
  0
ARC
  5
6C8
330
1F
100
AcDbEntity
  8
0
100
AcDbCircle
 10
263.4748653147125
 20
111.0463661315754
 30
0.0
 40
1.5
100
AcDbArc
 50
314.9999999999998
 51
109.4898945582105
  0
ARC
  5
6C9
330
1F
100
AcDbEntity
  8
0
100
AcDbCircle
 10
268.4246127830185
 20
106.0966186632697
 30
0.0
 40
1.5
100
AcDbArc
 50
340.5101054417897
 51
134.9999999999994
  0
ARC
  5
6CA
330
1F
100
AcDbEntity
  8
0
100
AcDbCircle
 10
268.4246127830185
 20
17.5799709682263
 30
0.0
 40
1.5
100
AcDbArc
 50
225.0000000000004
 51
19.48989455821035
  0
ARC
  5
6CB
330
1F
100
AcDbEntity
  8
0
100
AcDbCircle
 10
263.4748653147126
 20
12.6302234999206
 30
0.0
 40
1.5
100
AcDbArc
 50
250.5101054417897
 51
44.99999999999984
  0
ARC
  5
6CC
330
1F
100
AcDbEntity
  8
0
100
AcDbCircle
 10
174.9582176196693
 20
12.6302234999206
 30
0.0
 40
1.5
100
AcDbArc
 50
135.0000000000002
 51
289.4898945582103
  0
ARC
  5
6CD
330
1F
100
AcDbEntity
  8
0
100
AcDbCircle
 10
170.0084701513634
 20
17.57997096822623
 30
0.0
 40
1.5
100
AcDbArc
 50
160.5101054417897
 51
314.9999999999998
  0
CIRCLE
  5
6D1
330
1F
100
AcDbEntity
  8
0
100
AcDbCircle
 10
40.01664430619992
 20
101.492864858502
 30
0.0
 40
1.5
  0
CIRCLE
  5
70D
330
1F
100
AcDbEntity
  8
Rzuty 2D
  6
Continuous
 62
     7
100
AcDbCircle
 10
259.9236077395226
 20
231.6672842038754
 30
0.0
 40
0.9000000000000015
  0
CIRCLE
  5
70E
102
{ACAD_REACTORS
102
}
330
1F
100
AcDbEntity
  8
Rzuty 2D
  6
Continuous
 62
     7
100
AcDbCircle
 10
259.9236077395226
 20
198.7672842038754
 30
0.0
 40
0.9000000000000015
  0
CIRCLE
  5
70F
102
{ACAD_REACTORS
102
}
330
1F
100
AcDbEntity
  8
Rzuty 2D
  6
Continuous
 62
     7
100
AcDbCircle
 10
227.0236077395226
 20
198.7672842038754
 30
0.0
 40
0.9000000000000015
  0
CIRCLE
  5
710
330
1F
100
AcDbEntity
  8
Rzuty 2D
  6
Continuous
 62
     7
100
AcDbCircle
 10
227.0236077395226
 20
231.6672842038754
 30
0.0
 40
0.9000000000000015
  0
LINE
  5
720
330
1F
100
AcDbEntity
  8
0
100
AcDbLine
 10
263.4736077395226
 20
237.7172842038754
 30
0.0
 11
263.4736077395226
 21
192.7172842038754
 31
0.0
  0
LINE
  5
721
330
1F
100
AcDbEntity
  8
0
100
AcDbLine
 10
241.4736077395226
 20
235.2172842038754
 30
0.0
 11
245.4736077395226
 21
235.2172842038754
 31
0.0
  0
LINE
  5
722
330
1F
100
AcDbEntity
  8
0
100
AcDbLine
 10
231.4736077395226
 20
235.2172842038754
 30
0.0
 11
235.4736077395226
 21
235.2172842038754
 31
0.0
  0
LINE
  5
723
330
1F
100
AcDbEntity
  8
0
100
AcDbLine
 10
255.4736077395226
 20
235.2172842038754
 30
0.0
 11
251.4736077395226
 21
235.2172842038754
 31
0.0
  0
LINE
  5
724
330
1F
100
AcDbEntity
  8
0
100
AcDbLine
 10
255.4736077395226
 20
236.7172842038754
 30
0.0
 11
255.4736077395226
 21
235.2172842038754
 31
0.0
  0
LINE
  5
725
330
1F
100
AcDbEntity
  8
0
100
AcDbLine
 10
251.4736077395226
 20
235.2172842038754
 30
0.0
 11
251.4736077395226
 21
236.7172842038754
 31
0.0
  0
LINE
  5
726
330
1F
100
AcDbEntity
  8
0
100
AcDbLine
 10
245.4736077395226
 20
235.2172842038754
 30
0.0
 11
245.4736077395226
 21
236.7172842038754
 31
0.0
  0
LINE
  5
727
330
1F
100
AcDbEntity
  8
0
100
AcDbLine
 10
241.4736077395226
 20
236.7172842038754
 30
0.0
 11
241.4736077395226
 21
235.2172842038754
 31
0.0
  0
LINE
  5
728
330
1F
100
AcDbEntity
  8
0
100
AcDbLine
 10
235.4736077395226
 20
235.2172842038754
 30
0.0
 11
235.4736077395226
 21
236.7172842038754
 31
0.0
  0
LINE
  5
729
330
1F
100
AcDbEntity
  8
0
100
AcDbLine
 10
231.4736077395226
 20
236.7172842038754
 30
0.0
 11
231.4736077395226
 21
235.2172842038754
 31
0.0
  0
LINE
  5
72A
330
1F
100
AcDbEntity
  8
0
100
AcDbLine
 10
223.4736077395226
 20
237.7172842038754
 30
0.0
 11
223.4736077395226
 21
192.7172842038754
 31
0.0
  0
LINE
  5
73C
330
1F
100
AcDbEntity
  8
0
100
AcDbLine
 10
263.4736077395226
 20
237.7172842038754
 30
0.0
 11
223.4736077395226
 21
237.7172842038754
 31
0.0
  0
LINE
  5
73D
330
1F
100
AcDbEntity
  8
0
100
AcDbLine
 10
255.4736077395226
 20
236.7172842038754
 30
0.0
 11
251.4736077395226
 21
236.7172842038754
 31
0.0
  0
LINE
  5
73E
330
1F
100
AcDbEntity
  8
0
100
AcDbLine
 10
245.4736077395226
 20
236.7172842038754
 30
0.0
 11
241.4736077395226
 21
236.7172842038754
 31
0.0
  0
LINE
  5
73F
330
1F
100
AcDbEntity
  8
0
100
AcDbLine
 10
235.4736077395226
 20
236.7172842038754
 30
0.0
 11
231.4736077395226
 21
236.7172842038754
 31
0.0
  0
LINE
  5
740
330
1F
100
AcDbEntity
  8
0
100
AcDbLine
 10
241.4736077395226
 20
195.2172842038754
 30
0.0
 11
245.4736077395226
 21
195.2172842038754
 31
0.0
  0
LINE
  5
741
330
1F
100
AcDbEntity
  8
0
100
AcDbLine
 10
231.4736077395226
 20
195.2172842038754
 30
0.0
 11
235.4736077395226
 21
195.2172842038754
 31
0.0
  0
LINE
  5
742
330
1F
100
AcDbEntity
  8
0
100
AcDbLine
 10
255.4736077395226
 20
195.2172842038754
 30
0.0
 11
251.4736077395226
 21
195.2172842038754
 31
0.0
  0
LINE
  5
743
330
1F
100
AcDbEntity
  8
0
100
AcDbLine
 10
255.4736077395226
 20
193.7172842038754
 30
0.0
 11
255.4736077395226
 21
195.2172842038754
 31
0.0
  0
LINE
  5
744
330
1F
100
AcDbEntity
  8
0
100
AcDbLine
 10
251.4736077395226
 20
195.2172842038754
 30
0.0
 11
251.4736077395226
 21
193.7172842038754
 31
0.0
  0
LINE
  5
745
330
1F
100
AcDbEntity
  8
0
100
AcDbLine
 10
245.4736077395226
 20
195.2172842038754
 30
0.0
 11
245.4736077395226
 21
193.7172842038754
 31
0.0
  0
LINE
  5
746
330
1F
100
AcDbEntity
  8
0
100
AcDbLine
 10
241.4736077395226
 20
193.7172842038754
 30
0.0
 11
241.4736077395226
 21
195.2172842038754
 31
0.0
  0
LINE
  5
747
330
1F
100
AcDbEntity
  8
0
100
AcDbLine
 10
235.4736077395226
 20
195.2172842038754
 30
0.0
 11
235.4736077395226
 21
193.7172842038754
 31
0.0
  0
LINE
  5
748
330
1F
100
AcDbEntity
  8
0
100
AcDbLine
 10
231.4736077395226
 20
193.7172842038754
 30
0.0
 11
231.4736077395226
 21
195.2172842038754
 31
0.0
  0
LINE
  5
749
330
1F
100
AcDbEntity
  8
0
100
AcDbLine
 10
263.4736077395226
 20
192.7172842038754
 30
0.0
 11
223.4736077395226
 21
192.7172842038754
 31
0.0
  0
LINE
  5
74A
330
1F
100
AcDbEntity
  8
0
100
AcDbLine
 10
255.4736077395226
 20
193.7172842038754
 30
0.0
 11
251.4736077395226
 21
193.7172842038754
 31
0.0
  0
LINE
  5
74B
330
1F
100
AcDbEntity
  8
0
100
AcDbLine
 10
245.4736077395226
 20
193.7172842038754
 30
0.0
 11
241.4736077395226
 21
193.7172842038754
 31
0.0
  0
LINE
  5
74C
330
1F
100
AcDbEntity
  8
0
100
AcDbLine
 10
235.4736077395226
 20
193.7172842038754
 30
0.0
 11
231.4736077395226
 21
193.7172842038754
 31
0.0
  0
LINE
  5
75D
330
1F
100
AcDbEntity
  8
0
100
AcDbLine
 10
273.0351661940398
 20
67.56552644448234
 30
0.0
 11
273.0351661940398
 21
68.56552644448246
 31
0.0
  0
ARC
  5
75E
330
1F
100
AcDbEntity
  8
0
100
AcDbCircle
 10
275.0351661940398
 20
68.56552644448246
 30
0.0
 40
2.0
100
AcDbArc
 50
90.00000000000001
 51
180.0
  0
LINE
  5
75F
330
1F
100
AcDbEntity
  8
0
100
AcDbLine
 10
275.0351661940398
 20
70.56552644448246
 30
0.0
 11
279.5447016740721
 21
70.56552644448246
 31
0.0
  0
ARC
  5
760
330
1F
100
AcDbEntity
  8
0
100
AcDbCircle
 10
279.5447016740721
 20
80.56552644448249
 30
0.0
 40
10.00000000000002
100
AcDbArc
 50
269.9999999999999
 51
353.3586664367037
  0
LINE
  5
761
330
1F
100
AcDbEntity
  8
0
100
AcDbLine
 10
289.4775975808683
 20
79.40898898086448
 30
0.0
 11
292.523135939375
 21
105.5655264444825
 31
0.0
  0
ARC
  5
762
330
1F
100
AcDbEntity
  8
0
100
AcDbCircle
 10
294.523135939375
 20
105.5655264444825
 30
0.0
 40
2.0
100
AcDbArc
 50
90.00000000000001
 51
180.0
  0
LINE
  5
763
330
1F
100
AcDbEntity
  8
0
100
AcDbLine
 10
294.523135939375
 20
107.5655264444825
 30
0.0
 11
295.4225156842271
 21
107.5655264444825
 31
0.0
  0
LINE
  5
764
330
1F
100
AcDbEntity
  8
0
100
AcDbLine
 10
273.0351661940398
 20
52.88159213042533
 30
0.0
 11
273.0351661940398
 21
51.88159213042522
 31
0.0
  0
ARC
  5
765
330
1F
100
AcDbEntity
  8
0
100
AcDbCircle
 10
275.0351661940398
 20
51.88159213042522
 30
0.0
 40
2.0
100
AcDbArc
 50
180.0
 51
270.0
  0
LINE
  5
766
330
1F
100
AcDbEntity
  8
0
100
AcDbLine
 10
275.0351661940398
 20
49.88159213042522
 30
0.0
 11
279.5447016740721
 21
49.88159213042522
 31
0.0
  0
ARC
  5
767
330
1F
100
AcDbEntity
  8
0
100
AcDbCircle
 10
279.5447016740721
 20
39.8815921304252
 30
0.0
 40
10.00000000000002
100
AcDbArc
 50
6.641333563296205
 51
90.00000000000009
  0
LINE
  5
768
330
1F
100
AcDbEntity
  8
0
100
AcDbLine
 10
289.4775975808683
 20
41.0381295940432
 30
0.0
 11
292.523135939375
 21
14.88159213042518
 31
0.0
  0
ARC
  5
769
330
1F
100
AcDbEntity
  8
0
100
AcDbCircle
 10
294.523135939375
 20
14.88159213042518
 30
0.0
 40
2.0
100
AcDbArc
 50
180.0
 51
270.0
  0
LINE
  5
76A
330
1F
100
AcDbEntity
  8
0
100
AcDbLine
 10
294.523135939375
 20
12.88159213042518
 30
0.0
 11
295.4225156842271
 21
12.88159213042518
 31
0.0
  0
LINE
  5
76B
330
1F
100
AcDbEntity
  8
0
100
AcDbLine
 10
50.01591365142703
 20
143.4619173723057
 30
0.0
 11
50.01591365142703
 21
147.8669921857281
 31
0.0
  0
LINE
  5
76C
330
1F
100
AcDbEntity
  8
0
100
AcDbLine
 10
50.01591365142703
 20
147.8669921857281
 30
0.0
 11
74.52620171585467
 21
147.8669921857281
 31
0.0
  0
LINE
  5
76D
330
1F
100
AcDbEntity
  8
0
100
AcDbLine
 10
74.52620171585467
 20
147.8669921857281
 30
0.0
 11
74.52620171585467
 21
143.4619173723057
 31
0.0
  0
LINE
  5
76E
330
1F
100
AcDbEntity
  8
0
100
AcDbLine
 10
74.52620171585467
 20
143.4619173723057
 30
0.0
 11
50.01591365142703
 21
143.4619173723057
 31
0.0
  0
LINE
  5
76F
330
1F
100
AcDbEntity
  8
0
100
AcDbLine
 10
50.01591365142703
 20
134.6517677454607
 30
0.0
 11
50.01591365142703
 21
139.0568425588831
 31
0.0
  0
LINE
  5
770
330
1F
100
AcDbEntity
  8
0
100
AcDbLine
 10
50.01591365142703
 20
139.0568425588831
 30
0.0
 11
74.52620171585467
 21
139.0568425588831
 31
0.0
  0
LINE
  5
771
330
1F
100
AcDbEntity
  8
0
100
AcDbLine
 10
74.52620171585467
 20
139.0568425588831
 30
0.0
 11
74.52620171585467
 21
134.6517677454607
 31
0.0
  0
LINE
  5
772
330
1F
100
AcDbEntity
  8
0
100
AcDbLine
 10
74.52620171585467
 20
134.6517677454607
 30
0.0
 11
50.01591365142703
 21
134.6517677454607
 31
0.0
  0
LINE
  5
773
330
1F
100
AcDbEntity
  8
0
100
AcDbLine
 10
50.01591365142703
 20
125.8965505355399
 30
0.0
 11
50.01591365142703
 21
130.3016253489624
 31
0.0
  0
LINE
  5
774
330
1F
100
AcDbEntity
  8
0
100
AcDbLine
 10
50.01591365142703
 20
130.3016253489624
 30
0.0
 11
74.52620171585467
 21
130.3016253489624
 31
0.0
  0
LINE
  5
775
330
1F
100
AcDbEntity
  8
0
100
AcDbLine
 10
74.52620171585467
 20
130.3016253489624
 30
0.0
 11
74.52620171585467
 21
125.8965505355399
 31
0.0
  0
LINE
  5
776
330
1F
100
AcDbEntity
  8
0
100
AcDbLine
 10
74.52620171585467
 20
125.8965505355399
 30
0.0
 11
50.01591365142703
 21
125.8965505355399
 31
0.0
  0
CIRCLE
  5
787
330
1F
100
AcDbEntity
  8
0
100
AcDbCircle
 10
243.4736077395226
 20
215.2172842038754
 30
0.0
 40
18.16527435413256
  0
ENDSEC
  0
SECTION
  2
OBJECTS
  0
DICTIONARY
  5
C
330
0
100
AcDbDictionary
281
     1
  3
ACAD_DETAILVIEWSTYLE
350
65E
  3
ACAD_GROUP
350
D
  3
ACAD_IMAGE_VARS
350
6A
  3
ACAD_LAYOUT
350
1A
  3
ACAD_MATERIAL
350
72
  3
ACAD_MLEADERSTYLE
350
3F
  3
ACAD_MLINESTYLE
350
17
  3
ACAD_PLOTSETTINGS
350
19
  3
ACAD_PLOTSTYLENAME
350
E
  3
ACAD_SCALELIST
350
40
  3
ACAD_SECTIONVIEWSTYLE
350
65F
  3
ACAD_TABLESTYLE
350
3B
  3
ACAD_VISUALSTYLE
350
2A
  3
ACDB_RECOMPOSE_DATA
350
78D
  3
AcDbVariableDictionary
350
3D
  3
APPDATA
350
71
  0
SUN
  5
63D
330
29
100
AcDbSun
 90
        1
290
     0
 63
     7
421
 16777215
 40
1.0
291
     1
 91
  2455826
 92
 54000000
292
     0
 70
     2
 71
   256
280
     1
  0
DICTIONARY
  5
559
330
2
100
AcDbDictionary
280
     1
281
     1
  3
ACAD_LAYERSTATES
360
55A
  3
ACLYDICTIONARY
360
55C
  0
DICTIONARY
  5
11B
330
1F
100
AcDbDictionary
280
     1
281
     1
  3
ACAD_SORTENTS
360
11C
  0
DICTIONARY
  5
65E
102
{ACAD_REACTORS
330
C
102
}
330
C
100
AcDbDictionary
281
     1
  0
DICTIONARY
  5
D
102
{ACAD_REACTORS
330
C
102
}
330
C
100
AcDbDictionary
281
     1
  0
RASTERVARIABLES
  5
6A
102
{ACAD_REACTORS
330
C
102
}
330
C
100
AcDbRasterVariables
 90
        0
 70
     1
 71
     1
 72
     1
  0
DICTIONARY
  5
1A
102
{ACAD_REACTORS
330
C
102
}
330
C
100
AcDbDictionary
281
     1
  3
Model
350
22
  3
Sheet1
350
1E
  3
Sheet2
350
26
  0
DICTIONARY
  5
72
102
{ACAD_REACTORS
330
C
102
}
330
C
100
AcDbDictionary
281
     1
  3
ByBlock
350
74
  3
ByLayer
350
73
  3
Global
350
75
  0
DICTIONARY
  5
3F
102
{ACAD_REACTORS
330
C
102
}
330
C
100
AcDbDictionary
281
     1
  0
DICTIONARY
  5
17
102
{ACAD_REACTORS
330
C
102
}
330
C
100
AcDbDictionary
281
     1
  3
Standard
350
18
  0
DICTIONARY
  5
19
102
{ACAD_REACTORS
330
C
102
}
330
C
100
AcDbDictionary
281
     1
  0
ACDBDICTIONARYWDFLT
  5
E
102
{ACAD_REACTORS
330
C
102
}
330
C
100
AcDbDictionary
281
     1
  3
Normal
350
F
100
AcDbDictionaryWithDefault
340
F
  0
DICTIONARY
  5
40
102
{ACAD_REACTORS
330
C
102
}
330
C
100
AcDbDictionary
281
     1
  3
A0
350
41
  3
A1
350
42
  3
A2
350
43
  3
A3
350
44
  3
A4
350
45
  3
A5
350
46
  3
A6
350
47
  3
A7
350
48
  3
A8
350
49
  3
A9
350
4A
  3
B0
350
4B
  3
B1
350
4C
  3
B2
350
4D
  3
B3
350
4E
  3
B4
350
4F
  3
B5
350
50
  3
B6
350
51
  3
B7
350
52
  3
B8
350
53
  3
B9
350
54
  3
C0
350
55
  3
C1
350
56
  3
C2
350
57
  3
C3
350
58
  3
C4
350
59
  3
C5
350
5A
  3
C6
350
5B
  3
C7
350
5C
  3
C8
350
5D
  3
C9
350
5E
  3
D0
350
5F
  3
D1
350
60
  3
D2
350
61
  0
DICTIONARY
  5
65F
102
{ACAD_REACTORS
330
C
102
}
330
C
100
AcDbDictionary
281
     1
  0
DICTIONARY
  5
3B
102
{ACAD_REACTORS
330
C
102
}
330
C
100
AcDbDictionary
281
     1
  3
Standard
350
3C
  0
DICTIONARY
  5
2A
102
{ACAD_REACTORS
330
C
102
}
330
C
100
AcDbDictionary
281
     1
  3
2dWireframe
350
2F
  3
3D Hidden
350
31
  3
3dWireframe
350
30
  3
Basic
350
32
  3
Brighten
350
36
  3
ColorChange
350
3A
  3
Conceptual
350
34
  3
Dim
350
35
  3
EdgeColorOff
350
637
  3
Facepattern
350
39
  3
Flat
350
2B
  3
FlatWithEdges
350
2C
  3
Gouraud
350
2D
  3
GouraudWithEdges
350
2E
  3
Hidden
350
634
  3
JitterOff
350
635
  3
Linepattern
350
38
  3
OverhangOff
350
636
  3
Realistic
350
33
  3
Shaded
350
63C
  3
Shaded with edges
350
63B
  3
Shades of Gray
350
638
  3
Sketchy
350
639
  3
Thicken
350
37
  3
Wireframe
350
633
  3
X-Ray
350
63A
  0
XRECORD
  5
78D
102
{ACAD_REACTORS
330
C
102
}
330
C
100
AcDbXrecord
280
     1
 90
        1
330
3C
  0
DICTIONARY
  5
3D
102
{ACAD_REACTORS
330
C
102
}
330
C
100
AcDbDictionary
281
     1
  3
CANNOSCALE
350
62
  3
CTABLESTYLE
350
3E
  3
LIGHTSINBLOCKS
350
6F
  3
XCLIPFRAME
350
70
  0
DICTIONARY
  5
71
102
{ACAD_REACTORS
330
C
102
}
330
C
100
AcDbDictionary
281
     1
  0
DICTIONARY
  5
55A
102
{ACAD_REACTORS
330
559
102
}
330
559
100
AcDbDictionary
281
     1
  3
ARGON_LAYERP_1
350
55B
  0
DICTIONARY
  5
55C
102
{ACAD_REACTORS
330
559
102
}
330
559
100
AcDbDictionary
281
     1
1001
ACAD
1000
<All
  0
SORTENTSTABLE
  5
11C
102
{ACAD_REACTORS
330
11B
102
}
330
11B
100
AcDbSortentsTable
330
1F
331
0
  5
99
331
7D
  5
81
331
7E
  5
82
331
7F
  5
83
331
80
  5
86
331
81
  5
87
331
82
  5
88
331
85
  5
89
331
86
  5
8D
331
87
  5
8E
331
88
  5
8F
331
8C
  5
93
331
8D
  5
94
331
8E
  5
97
331
92
  5
98
331
96
  5
9A
331
97
  5
A7
331
98
  5
AE
331
99
  5
AF
331
A6
  5
B3
331
AD
  5
B4
331
AE
  5
B5
331
B2
  5
B7
331
B3
  5
B8
331
B4
  5
B9
331
B6
  5
BA
331
B7
  5
BB
331
B8
  5
BC
331
B9
  5
BD
331
BA
  5
C0
331
BB
  5
C1
331
BC
  5
C2
331
BF
  5
C3
331
C0
  5
C4
331
C1
  5
C5
331
C2
  5
C7
331
C3
  5
C9
331
C4
  5
CA
331
C6
  5
CB
331
C8
  5
CC
331
C9
  5
CD
331
CA
  5
CE
331
CB
  5
CF
331
CC
  5
D0
331
CD
  5
D1
331
CE
  5
D2
331
CF
  5
D3
331
D0
  5
E3
331
D1
  5
E4
331
D2
  5
E5
331
E3
  5
EA
331
E4
  5
EB
331
E9
  5
12A
331
EA
  5
12E
331
EB
  5
12F
331
12A
  5
131
331
134
  5
137
331
135
  5
138
331
137
  5
13C
331
138
  5
13D
331
139
  5
13E
331
13C
  5
140
331
13E
  5
141
331
13F
  5
142
331
140
  5
143
331
141
  5
144
331
142
  5
145
331
143
  5
146
331
144
  5
147
331
145
  5
148
331
146
  5
149
331
147
  5
153
331
148
  5
154
331
149
  5
155
331
153
  5
156
331
154
  5
157
331
155
  5
158
331
156
  5
159
331
157
  5
15A
331
158
  5
15B
331
159
  5
15C
331
15A
  5
15D
331
15B
  5
15E
331
15C
  5
15F
331
15D
  5
160
331
15E
  5
161
331
15F
  5
162
331
160
  5
163
331
161
  5
164
331
162
  5
165
331
163
  5
166
331
164
  5
167
331
165
  5
168
331
166
  5
169
331
167
  5
16A
331
168
  5
16B
331
169
  5
16C
331
16A
  5
16D
331
16B
  5
16E
331
16C
  5
16F
331
16D
  5
170
331
16E
  5
177
331
16F
  5
178
331
170
  5
179
331
177
  5
17A
331
178
  5
17C
331
179
  5
17F
331
17A
  5
180
331
17C
  5
182
331
17F
  5
1B2
331
182
  5
1E6
331
1E5
  5
1E8
331
1E6
  5
1E9
331
1E8
  5
1EB
331
1EA
  5
1ED
331
1EB
  5
1EE
331
1ED
  5
1F0
331
1EE
  5
1F1
331
1F0
  5
1F4
331
1F1
  5
1F5
331
1F4
  5
1F7
331
1F5
  5
1F8
331
1F6
  5
1F9
331
1F9
  5
1FC
331
1FA
  5
1FD
331
1FB
  5
1FE
331
1FD
  5
200
331
1FE
  5
201
331
200
  5
203
331
201
  5
204
331
203
  5
206
331
204
  5
207
331
209
  5
229
331
20A
  5
244
331
227
  5
246
331
229
  5
24B
331
246
  5
24D
331
26E
  5
280
331
280
  5
289
331
287
  5
28A
331
288
  5
28B
331
289
  5
28C
331
28A
  5
28D
331
28B
  5
28E
331
28C
  5
28F
331
28D
  5
2B7
331
28E
  5
2B8
331
28F
  5
2C4
331
2C2
  5
2D9
331
2CF
  5
2DB
331
2D9
  5
2DC
331
2DA
  5
2DF
331
2DB
  5
2E0
331
2DC
  5
2E1
331
2DF
  5
2E2
331
2E0
  5
2E3
331
2E1
  5
2E4
331
2E2
  5
2E5
331
2E3
  5
2E6
331
2E4
  5
2E7
331
2E5
  5
2E8
331
2E6
  5
2E9
331
2E7
  5
2EA
331
2E8
  5
2EB
331
2E9
  5
31F
331
2EA
  5
320
331
2EB
  5
322
331
31F
  5
323
331
320
  5
324
331
322
  5
326
331
323
  5
327
331
324
  5
328
331
326
  5
329
331
327
  5
32D
331
328
  5
32E
331
329
  5
32F
331
32D
  5
331
331
32E
  5
332
331
32F
  5
333
331
331
  5
335
331
332
  5
336
331
333
  5
337
331
335
  5
338
331
336
  5
339
331
337
  5
33A
331
338
  5
33B
331
339
  5
33C
331
33A
  5
33D
331
33B
  5
33E
331
33C
  5
33F
331
33D
  5
340
331
33E
  5
341
331
33F
  5
34A
331
340
  5
34B
331
341
  5
34C
331
34A
  5
34D
331
34B
  5
34E
331
34C
  5
34F
331
34D
  5
350
331
34E
  5
351
331
34F
  5
356
331
350
  5
357
331
351
  5
358
331
356
  5
359
331
357
  5
3C3
331
358
  5
3C4
331
359
  5
3C5
331
3C3
  5
3C6
331
3C4
  5
3C7
331
3C5
  5
3C8
331
3C6
  5
3C9
331
3C7
  5
3CA
331
3C8
  5
3CB
331
3C9
  5
3CC
331
3CA
  5
3CD
331
3CB
  5
3CE
331
3CD
  5
3D0
331
3CE
  5
3D1
331
3CF
  5
3D2
331
3D0
  5
3D3
331
3D1
  5
3D4
331
3D2
  5
3D5
331
3D3
  5
3D6
331
3D4
  5
3D7
331
3D5
  5
3D8
331
3D6
  5
3D9
331
3D7
  5
3DA
331
3D8
  5
3DB
331
3D9
  5
3DC
331
3DD
  5
3E0
331
3DE
  5
3E1
331
3DF
  5
3E2
331
3E0
  5
3E3
331
3E1
  5
3E4
331
3E2
  5
3E5
331
3E3
  5
3E6
331
3E4
  5
3E7
331
3E5
  5
3E8
331
3E6
  5
3E9
331
3E7
  5
3EA
331
3E8
  5
3EB
331
3E9
  5
3EC
331
3EA
  5
3ED
331
3EB
  5
3EE
331
3EC
  5
3EF
331
3ED
  5
3F0
331
3EE
  5
3F1
331
3EF
  5
3F2
331
3F0
  5
3F4
331
3F1
  5
3F5
331
3F2
  5
3F7
331
3F5
  5
3F9
331
3F7
  5
3FA
331
3F8
  5
3FD
331
3FB
  5
3FF
331
3FD
  5
401
331
3FF
  5
403
331
401
  5
404
331
402
  5
405
331
403
  5
406
331
404
  5
407
331
405
  5
408
331
406
  5
409
331
407
  5
40A
331
408
  5
40B
331
409
  5
40C
331
40A
  5
40D
331
40B
  5
40E
331
40C
  5
40F
331
40D
  5
410
331
40E
  5
411
331
40F
  5
412
331
410
  5
413
331
411
  5
414
331
412
  5
415
331
413
  5
416
331
414
  5
417
331
415
  5
418
331
416
  5
419
331
417
  5
41A
331
418
  5
41B
331
419
  5
41C
331
41A
  5
41D
331
41B
  5
41E
331
41C
  5
41F
331
41D
  5
421
331
41E
  5
422
331
41F
  5
423
331
421
  5
424
331
422
  5
425
331
423
  5
426
331
424
  5
427
331
425
  5
428
331
426
  5
429
331
427
  5
42A
331
428
  5
42B
331
429
  5
42C
331
42A
  5
42D
331
42B
  5
42E
331
42C
  5
42F
331
42D
  5
430
331
42E
  5
431
331
42F
  5
432
331
430
  5
433
331
431
  5
434
331
432
  5
435
331
433
  5
436
331
434
  5
437
331
435
  5
46D
331
436
  5
46E
331
437
  5
46F
331
46D
  5
470
331
46E
  5
471
331
46F
  5
472
331
470
  5
473
331
471
  5
474
331
472
  5
475
331
473
  5
476
331
474
  5
477
331
475
  5
478
331
476
  5
479
331
477
  5
47A
331
478
  5
47B
331
479
  5
47C
331
47A
  5
47D
331
47B
  5
47E
331
47C
  5
47F
331
47D
  5
480
331
47E
  5
481
331
47F
  5
484
331
484
  5
487
331
485
  5
48C
331
486
  5
48D
331
487
  5
48E
331
48C
  5
48F
331
48D
  5
492
331
48E
  5
493
331
48F
  5
494
331
492
  5
495
331
493
  5
496
331
494
  5
497
331
495
  5
498
331
496
  5
499
331
497
  5
49C
331
498
  5
49D
331
499
  5
49E
331
49C
  5
49F
331
49D
  5
4B0
331
49E
  5
4B1
331
49F
  5
4B2
331
4B0
  5
4B3
331
4B1
  5
4B4
331
4B2
  5
4B5
331
4B3
  5
4B6
331
4B4
  5
4B9
331
4B7
  5
4BA
331
4B8
  5
4BD
331
4BB
  5
4BE
331
4BC
  5
4BF
331
4BD
  5
4C0
331
4BE
  5
4C1
331
4BF
  5
4C3
331
4C1
  5
4C4
331
4C2
  5
4C5
331
4C3
  5
4C6
331
4C4
  5
4C7
331
4C5
  5
4C8
331
4C6
  5
4CB
331
4C9
  5
4CD
331
4CB
  5
4CE
331
4CC
  5
4CF
331
4CD
  5
4D2
331
4CE
  5
4D3
331
4CF
  5
4D4
331
4D2
  5
4D5
331
4D3
  5
4D6
331
4D4
  5
4D7
331
4D5
  5
4D8
331
4D6
  5
4D9
331
4D7
  5
4DA
331
4D8
  5
4DB
331
4D9
  5
4DC
331
4DA
  5
4DD
331
4DB
  5
4DE
331
4DC
  5
4DF
331
4DD
  5
4E0
331
4DE
  5
4E1
331
4DF
  5
4E2
331
4E0
  5
4E3
331
4E1
  5
4E4
331
4E2
  5
4E5
331
4E3
  5
4E6
331
4E4
  5
4E7
331
4E5
  5
4E8
331
4E6
  5
4E9
331
4E7
  5
4FB
331
4E8
  5
4FC
331
4E9
  5
504
331
504
  5
505
331
505
  5
506
331
506
  5
507
331
507
  5
508
331
508
  5
509
331
509
  5
50A
331
50A
  5
50B
331
50B
  5
50C
331
50C
  5
50D
331
50D
  5
50E
331
50E
  5
50F
331
50F
  5
510
331
510
  5
511
331
511
  5
512
331
512
  5
513
331
513
  5
514
331
514
  5
515
331
515
  5
516
331
516
  5
517
331
517
  5
518
331
518
  5
519
331
519
  5
51A
331
51A
  5
51B
331
51B
  5
51C
331
607
  5
608
331
608
  5
609
331
609
  5
60A
331
60A
  5
612
331
612
  5
614
331
614
  5
615
331
615
  5
616
331
616
  5
617
331
617
  5
61A
331
61A
  5
61B
331
61B
  5
61C
331
61C
  5
61D
331
61D
  5
61E
331
61E
  5
61F
331
61F
  5
620
331
620
  5
621
331
621
  5
622
331
622
  5
623
331
623
  5
624
331
624
  5
625
331
625
  5
626
331
626
  5
627
331
627
  5
628
331
628
  5
629
331
629
  5
62A
331
62A
  5
62B
331
62B
  5
62C
331
62C
  5
62D
331
62D
  5
62E
331
62E
  5
62F
331
62F
  5
630
331
630
  5
63E
  0
LAYOUT
  5
22
102
{ACAD_REACTORS
330
1A
102
}
330
1A
100
AcDbPlotSettings
  1

  2
none_device
  4
ISO_A3_(420.00_x_297.00_MM)
  6

 40
7.5
 41
20.0
 42
7.5
 43
20.0
 44
420.0
 45
297.0
 46
20.78282828282826
 47
0.0
 48
0.0
 49
0.0
140
0.0
141
0.0
142
1.0
143
1.155642023346303
 70
  1204
 72
     1
 73
     0
 74
     1
  7
monochrome.ctb
 75
     0
 76
     0
 77
     2
 78
   300
147
0.8653198653198654
148
-134.1869158878504
149
0.0
100
AcDbLayout
  1
Model
 70
     1
 71
     0
 10
0.0
 20
0.0
 11
420.0
 21
297.0
 12
0.0
 22
0.0
 32
0.0
 14
-58.54924346957844
 24
1.838294815747986
 34
0.0
 15
296.9225156842271
 25
305.4193937496317
 35
0.0
146
0.0
 13
0.0
 23
0.0
 33
0.0
 16
1.0
 26
0.0
 36
0.0
 17
0.0
 27
1.0
 37
0.0
 76
     0
330
1F
331
29
  0
LAYOUT
  5
1E
102
{ACAD_REACTORS
330
1A
102
}
330
1A
100
AcDbPlotSettings
  1

  2
none_device
  4

  6

 40
0.0
 41
0.0
 42
0.0
 43
0.0
 44
0.0
 45
0.0
 46
0.0
 47
0.0
 48
0.0
 49
0.0
140
0.0
141
0.0
142
1.0
143
1.0
 70
   688
 72
     0
 73
     0
 74
     5
  7

 75
    16
 76
     0
 77
     2
 78
   300
147
1.0
148
0.0
149
0.0
100
AcDbLayout
  1
Sheet1
 70
     1
 71
     1
 10
0.0
 20
0.0
 11
420.0
 21
297.0
 12
0.0
 22
0.0
 32
0.0
 14
1.000000000000000E+20
 24
1.000000000000000E+20
 34
1.000000000000000E+20
 15
-1.000000000000000E+20
 25
-1.000000000000000E+20
 35
-1.000000000000000E+20
146
0.0
 13
0.0
 23
0.0
 33
0.0
 16
1.0
 26
0.0
 36
0.0
 17
0.0
 27
1.0
 37
0.0
 76
     0
330
1B
  0
LAYOUT
  5
26
102
{ACAD_REACTORS
330
1A
102
}
330
1A
100
AcDbPlotSettings
  1

  2
none_device
  4

  6

 40
0.0
 41
0.0
 42
0.0
 43
0.0
 44
0.0
 45
0.0
 46
0.0
 47
0.0
 48
0.0
 49
0.0
140
0.0
141
0.0
142
1.0
143
1.0
 70
   688
 72
     0
 73
     0
 74
     5
  7

 75
    16
 76
     0
 77
     2
 78
   300
147
1.0
148
0.0
149
0.0
100
AcDbLayout
  1
Sheet2
 70
     1
 71
     2
 10
0.0
 20
0.0
 11
0.0
 21
0.0
 12
0.0
 22
0.0
 32
0.0
 14
0.0
 24
0.0
 34
0.0
 15
0.0
 25
0.0
 35
0.0
146
0.0
 13
0.0
 23
0.0
 33
0.0
 16
1.0
 26
0.0
 36
0.0
 17
0.0
 27
1.0
 37
0.0
 76
     0
330
23
  0
MATERIAL
  5
74
102
{ACAD_REACTORS
330
72
102
}
330
72
100
AcDbMaterial
  1
ByBlock
 72
     1
 94
      127
  0
MATERIAL
  5
73
102
{ACAD_REACTORS
330
72
102
}
330
72
100
AcDbMaterial
  1
ByLayer
 72
     1
 94
      127
  0
MATERIAL
  5
75
102
{ACAD_REACTORS
330
72
102
}
330
72
100
AcDbMaterial
  1
Global
 72
     1
 94
      127
  0
MLINESTYLE
  5
18
102
{ACAD_REACTORS
330
17
102
}
330
17
100
AcDbMlineStyle
  2
Standard
 70
     0
  3

 62
   256
 51
90.0
 52
90.0
 71
     2
 49
0.5
 62
   256
  6
BYLAYER
 49
-0.5
 62
   256
  6
BYLAYER
  0
ACDBPLACEHOLDER
  5
F
102
{ACAD_REACTORS
330
E
102
}
330
E
  0
SCALE
  5
41
102
{ACAD_REACTORS
330
40
102
}
330
40
100
AcDbScale
 70
     0
300
1:1
140
1.0
141
1.0
290
     1
  0
SCALE
  5
42
102
{ACAD_REACTORS
330
40
102
}
330
40
100
AcDbScale
 70
     0
300
1:2
140
1.0
141
2.0
290
     0
  0
SCALE
  5
43
102
{ACAD_REACTORS
330
40
102
}
330
40
100
AcDbScale
 70
     0
300
1:4
140
1.0
141
4.0
290
     0
  0
SCALE
  5
44
102
{ACAD_REACTORS
330
40
102
}
330
40
100
AcDbScale
 70
     0
300
1:5
140
1.0
141
5.0
290
     0
  0
SCALE
  5
45
102
{ACAD_REACTORS
330
40
102
}
330
40
100
AcDbScale
 70
     0
300
1:8
140
1.0
141
8.0
290
     0
  0
SCALE
  5
46
102
{ACAD_REACTORS
330
40
102
}
330
40
100
AcDbScale
 70
     0
300
1:10
140
1.0
141
10.0
290
     0
  0
SCALE
  5
47
102
{ACAD_REACTORS
330
40
102
}
330
40
100
AcDbScale
 70
     0
300
1:16
140
1.0
141
16.0
290
     0
  0
SCALE
  5
48
102
{ACAD_REACTORS
330
40
102
}
330
40
100
AcDbScale
 70
     0
300
1:20
140
1.0
141
20.0
290
     0
  0
SCALE
  5
49
102
{ACAD_REACTORS
330
40
102
}
330
40
100
AcDbScale
 70
     0
300
1:30
140
1.0
141
30.0
290
     0
  0
SCALE
  5
4A
102
{ACAD_REACTORS
330
40
102
}
330
40
100
AcDbScale
 70
     0
300
1:40
140
1.0
141
40.0
290
     0
  0
SCALE
  5
4B
102
{ACAD_REACTORS
330
40
102
}
330
40
100
AcDbScale
 70
     0
300
1:50
140
1.0
141
50.0
290
     0
  0
SCALE
  5
4C
102
{ACAD_REACTORS
330
40
102
}
330
40
100
AcDbScale
 70
     0
300
1:100
140
1.0
141
100.0
290
     0
  0
SCALE
  5
4D
102
{ACAD_REACTORS
330
40
102
}
330
40
100
AcDbScale
 70
     0
300
2:1
140
2.0
141
1.0
290
     0
  0
SCALE
  5
4E
102
{ACAD_REACTORS
330
40
102
}
330
40
100
AcDbScale
 70
     0
300
4:1
140
4.0
141
1.0
290
     0
  0
SCALE
  5
4F
102
{ACAD_REACTORS
330
40
102
}
330
40
100
AcDbScale
 70
     0
300
8:1
140
8.0
141
1.0
290
     0
  0
SCALE
  5
50
102
{ACAD_REACTORS
330
40
102
}
330
40
100
AcDbScale
 70
     0
300
10:1
140
10.0
141
1.0
290
     0
  0
SCALE
  5
51
102
{ACAD_REACTORS
330
40
102
}
330
40
100
AcDbScale
 70
     0
300
100:1
140
100.0
141
1.0
290
     0
  0
SCALE
  5
52
102
{ACAD_REACTORS
330
40
102
}
330
40
100
AcDbScale
 70
     0
300
1/128" = 1'-0"
140
0.0078125
141
12.0
290
     0
  0
SCALE
  5
53
102
{ACAD_REACTORS
330
40
102
}
330
40
100
AcDbScale
 70
     0
300
1/64" = 1'-0"
140
0.015625
141
12.0
290
     0
  0
SCALE
  5
54
102
{ACAD_REACTORS
330
40
102
}
330
40
100
AcDbScale
 70
     0
300
1/32" = 1'-0"
140
0.03125
141
12.0
290
     0
  0
SCALE
  5
55
102
{ACAD_REACTORS
330
40
102
}
330
40
100
AcDbScale
 70
     0
300
1/16" = 1'-0"
140
0.0625
141
12.0
290
     0
  0
SCALE
  5
56
102
{ACAD_REACTORS
330
40
102
}
330
40
100
AcDbScale
 70
     0
300
3/32" = 1'-0"
140
0.09375
141
12.0
290
     0
  0
SCALE
  5
57
102
{ACAD_REACTORS
330
40
102
}
330
40
100
AcDbScale
 70
     0
300
1/8" = 1'-0"
140
0.125
141
12.0
290
     0
  0
SCALE
  5
58
102
{ACAD_REACTORS
330
40
102
}
330
40
100
AcDbScale
 70
     0
300
3/16" = 1'-0"
140
0.1875
141
12.0
290
     0
  0
SCALE
  5
59
102
{ACAD_REACTORS
330
40
102
}
330
40
100
AcDbScale
 70
     0
300
1/4" = 1'-0"
140
0.25
141
12.0
290
     0
  0
SCALE
  5
5A
102
{ACAD_REACTORS
330
40
102
}
330
40
100
AcDbScale
 70
     0
300
3/8" = 1'-0"
140
0.375
141
12.0
290
     0
  0
SCALE
  5
5B
102
{ACAD_REACTORS
330
40
102
}
330
40
100
AcDbScale
 70
     0
300
1/2" = 1'-0"
140
0.5
141
12.0
290
     0
  0
SCALE
  5
5C
102
{ACAD_REACTORS
330
40
102
}
330
40
100
AcDbScale
 70
     0
300
3/4" = 1'-0"
140
0.75
141
12.0
290
     0
  0
SCALE
  5
5D
102
{ACAD_REACTORS
330
40
102
}
330
40
100
AcDbScale
 70
     0
300
1" = 1'-0"
140
1.0
141
12.0
290
     0
  0
SCALE
  5
5E
102
{ACAD_REACTORS
330
40
102
}
330
40
100
AcDbScale
 70
     0
300
1-1/2" = 1'-0"
140
1.5
141
12.0
290
     0
  0
SCALE
  5
5F
102
{ACAD_REACTORS
330
40
102
}
330
40
100
AcDbScale
 70
     0
300
3" = 1'-0"
140
3.0
141
12.0
290
     0
  0
SCALE
  5
60
102
{ACAD_REACTORS
330
40
102
}
330
40
100
AcDbScale
 70
     0
300
6" = 1'-0"
140
6.0
141
12.0
290
     0
  0
SCALE
  5
61
102
{ACAD_REACTORS
330
40
102
}
330
40
100
AcDbScale
 70
     0
300
1'-0" = 1'-0"
140
12.0
141
12.0
290
     0
  0
TABLESTYLE
  5
3C
102
{ACAD_REACTORS
330
3B
102
}
102
{ACAD_XDICTIONARY
360
78B
102
}
330
3B
100
AcDbTableStyle
  3
Standard
 70
     0
 71
     0
 40
0.06
 41
0.06
280
     0
281
     0
  7
Standard
140
4.5
170
     2
 62
     0
 63
   257
283
     0
 90
      512
 91
        0
  1

274
    -2
284
     1
 64
     0
275
    -2
285
     1
 65
     0
276
    -2
286
     1
 66
     0
277
    -2
287
     1
 67
     0
278
    -2
288
     1
 68
     0
279
    -2
289
     1
 69
     0
  7
Standard
140
6.0
170
     5
 62
     0
 63
   257
283
     0
 90
      512
 91
        0
  1

274
    -2
284
     1
 64
     0
275
    -2
285
     1
 65
     0
276
    -2
286
     1
 66
     0
277
    -2
287
     1
 67
     0
278
    -2
288
     1
 68
     0
279
    -2
289
     1
 69
     0
  7
Standard
140
4.5
170
     5
 62
     0
 63
   257
283
     0
 90
      512
 91
        0
  1

274
    -2
284
     1
 64
     0
275
    -2
285
     1
 65
     0
276
    -2
286
     1
 66
     0
277
    -2
287
     1
 67
     0
278
    -2
288
     1
 68
     0
279
    -2
289
     1
 69
     0
  0
VISUALSTYLE
  5
2F
102
{ACAD_REACTORS
330
2A
102
}
330
2A
100
AcDbVisualStyle
  2
2dWireframe
 70
     4
177
     2
291
     0
 71
     0
176
     1
 72
     2
176
     1
 73
     0
176
     1
 90
        0
176
     1
 40
-0.6
176
     1
 41
-30.0
176
     1
 62
     5
 63
     7
421
 16777215
176
     1
 74
     1
176
     1
 91
        4
176
     1
 64
     7
176
     1
 65
   257
176
     1
 75
     1
176
     1
175
     1
176
     1
 42
1.0
176
     1
 92
        0
176
     1
 66
   257
176
     1
 43
1.0
176
     1
 76
     1
176
     1
 77
     6
176
     1
 78
     2
176
     1
 67
     7
176
     1
 79
     5
176
     1
170
     0
176
     1
171
     0
176
     1
290
     0
176
     1
 93
        1
176
     1
 44
0.0
176
     1
173
     0
176
     1
  0
VISUALSTYLE
  5
31
102
{ACAD_REACTORS
330
2A
102
}
330
2A
100
AcDbVisualStyle
  2
3D Hidden
 70
     6
177
     2
291
     0
 71
     1
176
     1
 72
     2
176
     1
 73
     2
176
     1
 90
        0
176
     1
 40
-0.6
176
     1
 41
-30.0
176
     1
 62
     5
 63
     7
421
 16777215
176
     1
 74
     2
176
     1
 91
        2
176
     1
 64
     7
176
     1
 65
   257
176
     1
 75
     2
176
     1
175
     1
176
     1
 42
40.0
176
     1
 92
        0
176
     1
 66
   257
176
     1
 43
1.0
176
     1
 76
     1
176
     1
 77
     6
176
     1
 78
     2
176
     1
 67
     7
176
     1
 79
     3
176
     1
170
     0
176
     1
171
     0
176
     1
290
     0
176
     1
 93
        1
176
     1
 44
0.0
176
     1
173
     0
176
     1
  0
VISUALSTYLE
  5
30
102
{ACAD_REACTORS
330
2A
102
}
330
2A
100
AcDbVisualStyle
  2
3dWireframe
 70
     5
177
     2
291
     0
 71
     0
176
     1
 72
     2
176
     1
 73
     0
176
     1
 90
        0
176
     1
 40
-0.6
176
     1
 41
-30.0
176
     1
 62
     5
 63
     7
421
 16777215
176
     1
 74
     1
176
     1
 91
        4
176
     1
 64
     7
176
     1
 65
   257
176
     1
 75
     1
176
     1
175
     1
176
     1
 42
1.0
176
     1
 92
        0
176
     1
 66
   257
176
     1
 43
1.0
176
     1
 76
     1
176
     1
 77
     6
176
     1
 78
     2
176
     1
 67
     7
176
     1
 79
     5
176
     1
170
     0
176
     1
171
     0
176
     1
290
     0
176
     1
 93
        1
176
     1
 44
0.0
176
     1
173
     0
176
     1
  0
VISUALSTYLE
  5
32
102
{ACAD_REACTORS
330
2A
102
}
330
2A
100
AcDbVisualStyle
  2
Basic
 70
     7
177
     2
291
     1
 71
     1
176
     1
 72
     0
176
     1
 73
     1
176
     1
 90
        0
176
     1
 40
-0.6
176
     1
 41
-30.0
176
     1
 62
     5
 63
     7
421
 16777215
176
     1
 74
     0
176
     1
 91
        4
176
     1
 64
     7
176
     1
 65
   257
176
     1
 75
     1
176
     1
175
     1
176
     1
 42
1.0
176
     1
 92
        8
176
     1
 66
     7
176
     1
 43
1.0
176
     1
 76
     1
176
     1
 77
     6
176
     1
 78
     2
176
     1
 67
     7
176
     1
 79
     5
176
     1
170
     0
176
     1
171
     0
176
     1
290
     0
176
     1
 93
        1
176
     1
 44
0.0
176
     1
173
     0
176
     1
  0
VISUALSTYLE
  5
36
102
{ACAD_REACTORS
330
2A
102
}
330
2A
100
AcDbVisualStyle
  2
Brighten
 70
    12
177
     2
291
     1
 71
     2
176
     1
 72
     2
176
     1
 73
     0
176
     1
 90
        0
176
     1
 40
-0.6
176
     1
 41
-30.0
176
     1
 62
     5
 63
     7
421
 16777215
176
     1
 74
     1
176
     1
 91
        4
176
     1
 64
     7
176
     1
 65
   257
176
     1
 75
     1
176
     1
175
     1
176
     1
 42
1.0
176
     1
 92
        8
176
     1
 66
     7
176
     1
 43
1.0
176
     1
 76
     1
176
     1
 77
     6
176
     1
 78
     2
176
     1
 67
     7
176
     1
 79
     5
176
     1
170
     0
176
     1
171
     0
176
     1
290
     0
176
     1
 93
        1
176
     1
 44
50.0
176
     1
173
     0
176
     1
  0
VISUALSTYLE
  5
3A
102
{ACAD_REACTORS
330
2A
102
}
330
2A
100
AcDbVisualStyle
  2
ColorChange
 70
    16
177
     2
291
     1
 71
     2
176
     1
 72
     2
176
     1
 73
     3
176
     1
 90
        0
176
     1
 40
-0.6
176
     1
 41
-30.0
176
     1
 62
     5
 63
     8
421
  8421504
176
     1
 74
     1
176
     1
 91
        4
176
     1
 64
     7
176
     1
 65
   257
176
     1
 75
     1
176
     1
175
     1
176
     1
 42
1.0
176
     1
 92
        8
176
     1
 66
     8
424
  8421504
176
     1
 43
1.0
176
     1
 76
     1
176
     1
 77
     6
176
     1
 78
     2
176
     1
 67
     7
176
     1
 79
     5
176
     1
170
     0
176
     1
171
     0
176
     1
290
     0
176
     1
 93
        1
176
     1
 44
0.0
176
     1
173
     0
176
     1
  0
VISUALSTYLE
  5
34
102
{ACAD_REACTORS
330
2A
102
}
330
2A
100
AcDbVisualStyle
  2
Conceptual
 70
     9
177
     2
291
     0
 71
     3
176
     1
 72
     2
176
     1
 73
     0
176
     1
 90
        0
176
     1
 40
-0.6
176
     1
 41
-30.0
176
     1
 62
     5
 63
     7
421
 16777215
176
     1
 74
     2
176
     1
 91
        2
176
     1
 64
     7
176
     1
 65
   257
176
     1
 75
     1
176
     1
175
     1
176
     1
 42
40.0
176
     1
 92
        8
176
     1
 66
     7
176
     1
 43
1.0
176
     1
 76
     1
176
     1
 77
     6
176
     1
 78
     2
176
     1
 67
     7
176
     1
 79
     3
176
     1
170
     0
176
     1
171
     0
176
     1
290
     0
176
     1
 93
        1
176
     1
 44
0.0
176
     1
173
     0
176
     1
  0
VISUALSTYLE
  5
35
102
{ACAD_REACTORS
330
2A
102
}
330
2A
100
AcDbVisualStyle
  2
Dim
 70
    11
177
     2
291
     1
 71
     2
176
     1
 72
     2
176
     1
 73
     0
176
     1
 90
        0
176
     1
 40
-0.6
176
     1
 41
-30.0
176
     1
 62
     5
 63
     7
421
 16777215
176
     1
 74
     1
176
     1
 91
        4
176
     1
 64
     7
176
     1
 65
   257
176
     1
 75
     1
176
     1
175
     1
176
     1
 42
1.0
176
     1
 92
        8
176
     1
 66
     7
176
     1
 43
1.0
176
     1
 76
     1
176
     1
 77
     6
176
     1
 78
     2
176
     1
 67
     7
176
     1
 79
     5
176
     1
170
     0
176
     1
171
     0
176
     1
290
     0
176
     1
 93
        1
176
     1
 44
-50.0
176
     1
173
     0
176
     1
  0
VISUALSTYLE
  5
637
102
{ACAD_REACTORS
330
2A
102
}
330
2A
100
AcDbVisualStyle
  2
EdgeColorOff
 70
    22
177
     2
291
     1
 71
     2
176
     0
 72
     2
176
     0
 73
     0
176
     0
 90
        0
176
     0
 40
0.6
176
     0
 41
30.0
176
     0
 62
     5
 63
     7
421
 16777215
176
     0
 74
     1
176
     0
 91
        4
176
     0
 64
     7
176
     0
 65
   257
176
     0
 75
     1
176
     0
175
     1
176
     0
 42
1.0
176
     0
 92
        8
176
     2
 66
     7
176
     0
 43
1.0
176
     0
 76
     1
176
     0
 77
     6
176
     0
 78
     2
176
     0
 67
     7
176
     0
 79
     5
176
     0
170
     0
176
     0
171
     0
176
     0
290
     0
176
     0
 93
        1
176
     0
 44
0.0
176
     0
173
     0
176
     0
  0
VISUALSTYLE
  5
39
102
{ACAD_REACTORS
330
2A
102
}
330
2A
100
AcDbVisualStyle
  2
Facepattern
 70
    15
177
     2
291
     1
 71
     2
176
     1
 72
     2
176
     1
 73
     0
176
     1
 90
        0
176
     1
 40
-0.6
176
     1
 41
-30.0
176
     1
 62
     5
 63
     7
421
 16777215
176
     1
 74
     1
176
     1
 91
        4
176
     1
 64
     7
176
     1
 65
   257
176
     1
 75
     1
176
     1
175
     1
176
     1
 42
1.0
176
     1
 92
        8
176
     1
 66
     7
176
     1
 43
1.0
176
     1
 76
     1
176
     1
 77
     6
176
     1
 78
     2
176
     1
 67
     7
176
     1
 79
     5
176
     1
170
     0
176
     1
171
     0
176
     1
290
     0
176
     1
 93
        1
176
     1
 44
0.0
176
     1
173
     0
176
     1
  0
VISUALSTYLE
  5
2B
102
{ACAD_REACTORS
330
2A
102
}
330
2A
100
AcDbVisualStyle
  2
Flat
 70
     0
177
     2
291
     1
 71
     2
176
     1
 72
     1
176
     1
 73
     1
176
     1
 90
        2
176
     1
 40
-0.6
176
     1
 41
30.0
176
     1
 62
     5
 63
     7
421
 16777215
176
     1
 74
     0
176
     1
 91
        4
176
     1
 64
     7
176
     1
 65
   257
176
     1
 75
     1
176
     1
175
     1
176
     1
 42
1.0
176
     1
 92
        8
176
     1
 66
     7
176
     1
 43
1.0
176
     1
 76
     1
176
     1
 77
     6
176
     1
 78
     2
176
     1
 67
     7
176
     1
 79
     5
176
     1
170
     0
176
     1
171
     0
176
     1
290
     0
176
     1
 93
       13
176
     1
 44
0.0
176
     1
173
     0
176
     1
  0
VISUALSTYLE
  5
2C
102
{ACAD_REACTORS
330
2A
102
}
330
2A
100
AcDbVisualStyle
  2
FlatWithEdges
 70
     1
177
     2
291
     1
 71
     2
176
     1
 72
     1
176
     1
 73
     1
176
     1
 90
        2
176
     1
 40
-0.6
176
     1
 41
30.0
176
     1
 62
     5
 63
     7
421
 16777215
176
     1
 74
     1
176
     1
 91
        4
176
     1
 64
     7
176
     1
 65
   257
176
     1
 75
     1
176
     1
175
     1
176
     1
 42
1.0
176
     1
 92
        0
176
     1
 66
   257
176
     1
 43
1.0
176
     1
 76
     1
176
     1
 77
     6
176
     1
 78
     2
176
     1
 67
     7
176
     1
 79
     5
176
     1
170
     0
176
     1
171
     0
176
     1
290
     0
176
     1
 93
       13
176
     1
 44
0.0
176
     1
173
     0
176
     1
  0
VISUALSTYLE
  5
2D
102
{ACAD_REACTORS
330
2A
102
}
330
2A
100
AcDbVisualStyle
  2
Gouraud
 70
     2
177
     2
291
     1
 71
     2
176
     1
 72
     2
176
     1
 73
     1
176
     1
 90
        2
176
     1
 40
-0.6
176
     1
 41
30.0
176
     1
 62
     5
 63
     7
421
 16777215
176
     1
 74
     0
176
     1
 91
        4
176
     1
 64
     7
176
     1
 65
   257
176
     1
 75
     1
176
     1
175
     1
176
     1
 42
1.0
176
     1
 92
        0
176
     1
 66
     7
176
     1
 43
1.0
176
     1
 76
     1
176
     1
 77
     6
176
     1
 78
     2
176
     1
 67
     7
176
     1
 79
     5
176
     1
170
     0
176
     1
171
     0
176
     1
290
     0
176
     1
 93
       13
176
     1
 44
0.0
176
     1
173
     0
176
     1
  0
VISUALSTYLE
  5
2E
102
{ACAD_REACTORS
330
2A
102
}
330
2A
100
AcDbVisualStyle
  2
GouraudWithEdges
 70
     3
177
     2
291
     1
 71
     2
176
     1
 72
     2
176
     1
 73
     1
176
     1
 90
        2
176
     1
 40
-0.6
176
     1
 41
30.0
176
     1
 62
     5
 63
     7
421
 16777215
176
     1
 74
     1
176
     1
 91
        4
176
     1
 64
     7
176
     1
 65
   257
176
     1
 75
     1
176
     1
175
     1
176
     1
 42
1.0
176
     1
 92
        0
176
     1
 66
   257
176
     1
 43
1.0
176
     1
 76
     1
176
     1
 77
     6
176
     1
 78
     2
176
     1
 67
     7
176
     1
 79
     5
176
     1
170
     0
176
     1
171
     0
176
     1
290
     0
176
     1
 93
       13
176
     1
 44
0.0
176
     1
173
     0
176
     1
  0
VISUALSTYLE
  5
634
102
{ACAD_REACTORS
330
2A
102
}
330
2A
100
AcDbVisualStyle
  2
Hidden
 70
     6
177
     2
291
     0
 71
     1
176
     1
 72
     2
176
     1
 73
     2
176
     1
 90
        0
176
     1
 40
0.6
176
     1
 41
30.0
176
     1
 62
     5
 63
     7
421
 16777215
176
     1
 74
     2
176
     1
 91
        2
176
     1
 64
     7
176
     1
 65
   257
176
     1
 75
     2
176
     1
175
     1
176
     1
 42
40.0
176
     1
 92
        0
176
     1
 66
   257
176
     1
 43
1.0
176
     1
 76
     1
176
     1
 77
     6
176
     1
 78
     2
176
     1
 67
     7
176
     1
 79
     3
176
     1
170
     0
176
     1
171
     0
176
     1
290
     0
176
     1
 93
        1
176
     1
 44
0.0
176
     1
173
     0
176
     1
  0
VISUALSTYLE
  5
635
102
{ACAD_REACTORS
330
2A
102
}
330
2A
100
AcDbVisualStyle
  2
JitterOff
 70
    20
177
     2
291
     1
 71
     2
176
     0
 72
     2
176
     0
 73
     0
176
     0
 90
        0
176
     0
 40
0.6
176
     0
 41
30.0
176
     0
 62
     5
 63
     7
421
 16777215
176
     0
 74
     1
176
     0
 91
        4
176
     0
 64
     7
176
     0
 65
   257
176
     0
 75
     1
176
     0
175
     1
176
     0
 42
1.0
176
     0
 92
       10
176
     2
 66
     7
176
     0
 43
1.0
176
     0
 76
     1
176
     0
 77
     6
176
     0
 78
     2
176
     0
 67
     7
176
     0
 79
     5
176
     0
170
     0
176
     0
171
     0
176
     0
290
     0
176
     0
 93
        1
176
     0
 44
0.0
176
     0
173
     0
176
     0
  0
VISUALSTYLE
  5
38
102
{ACAD_REACTORS
330
2A
102
}
330
2A
100
AcDbVisualStyle
  2
Linepattern
 70
    14
177
     2
291
     1
 71
     2
176
     1
 72
     2
176
     1
 73
     0
176
     1
 90
        0
176
     1
 40
-0.6
176
     1
 41
-30.0
176
     1
 62
     5
 63
     7
421
 16777215
176
     1
 74
     1
176
     1
 91
        4
176
     1
 64
     7
176
     1
 65
   257
176
     1
 75
     7
176
     1
175
     7
176
     1
 42
1.0
176
     1
 92
        8
176
     1
 66
     7
176
     1
 43
1.0
176
     1
 76
     1
176
     1
 77
     6
176
     1
 78
     2
176
     1
 67
     7
176
     1
 79
     5
176
     1
170
     0
176
     1
171
     0
176
     1
290
     0
176
     1
 93
        1
176
     1
 44
0.0
176
     1
173
     0
176
     1
  0
VISUALSTYLE
  5
636
102
{ACAD_REACTORS
330
2A
102
}
330
2A
100
AcDbVisualStyle
  2
OverhangOff
 70
    21
177
     2
291
     1
 71
     2
176
     0
 72
     2
176
     0
 73
     0
176
     0
 90
        0
176
     0
 40
0.6
176
     0
 41
30.0
176
     0
 62
     5
 63
     7
421
 16777215
176
     0
 74
     1
176
     0
 91
        4
176
     0
 64
     7
176
     0
 65
   257
176
     0
 75
     1
176
     0
175
     1
176
     0
 42
1.0
176
     0
 92
        9
176
     2
 66
     7
176
     0
 43
1.0
176
     0
 76
     1
176
     0
 77
     6
176
     0
 78
     2
176
     0
 67
     7
176
     0
 79
     5
176
     0
170
     0
176
     0
171
     0
176
     0
290
     0
176
     0
 93
        1
176
     0
 44
0.0
176
     0
173
     0
176
     0
  0
VISUALSTYLE
  5
33
102
{ACAD_REACTORS
330
2A
102
}
330
2A
100
AcDbVisualStyle
  2
Realistic
 70
     8
177
     2
291
     0
 71
     2
176
     1
 72
     2
176
     1
 73
     0
176
     1
 90
        0
176
     1
 40
-0.6
176
     1
 41
-30.0
176
     1
 62
     5
 63
     7
421
 16777215
176
     1
 74
     1
176
     1
 91
        0
176
     1
 64
     7
176
     1
 65
   257
176
     1
 75
     1
176
     1
175
     1
176
     1
 42
1.0
176
     1
 92
        8
176
     1
 66
     8
424
  7895160
176
     1
 43
1.0
176
     1
 76
     1
176
     1
 77
     6
176
     1
 78
     2
176
     1
 67
     7
176
     1
 79
     5
176
     1
170
     0
176
     1
171
     0
176
     1
290
     0
176
     1
 93
       13
176
     1
 44
0.0
176
     1
173
     0
176
     1
  0
VISUALSTYLE
  5
63C
102
{ACAD_REACTORS
330
2A
102
}
330
2A
100
AcDbVisualStyle
  2
Shaded
 70
    27
177
     2
291
     0
 71
     2
176
     1
 72
     2
176
     1
 73
     1
176
     1
 90
        2
176
     1
 40
0.6
176
     1
 41
30.0
176
     1
 62
     5
 63
     7
421
 16777215
176
     1
 74
     0
176
     1
 91
        4
176
     1
 64
     7
176
     1
 65
   257
176
     1
 75
     1
176
     1
175
     1
176
     1
 42
1.0
176
     1
 92
        8
176
     1
 66
   257
176
     1
 43
1.0
176
     1
 76
     1
176
     1
 77
     6
176
     1
 78
     2
176
     1
 67
     8
425
  7895160
176
     1
 79
     3
176
     1
170
     0
176
     1
171
     0
176
     1
290
     0
176
     1
 93
        5
176
     1
 44
0.0
176
     1
173
     0
176
     1
  0
VISUALSTYLE
  5
63B
102
{ACAD_REACTORS
330
2A
102
}
330
2A
100
AcDbVisualStyle
  2
Shaded with edges
 70
    26
177
     2
291
     0
 71
     2
176
     1
 72
     2
176
     1
 73
     1
176
     1
 90
        2
176
     1
 40
0.6
176
     1
 41
30.0
176
     1
 62
     5
 63
     7
421
 16777215
176
     1
 74
     1
176
     1
 91
       10
176
     1
 64
     7
176
     1
 65
   257
176
     1
 75
     2
176
     1
175
     1
176
     1
 42
1.0
176
     1
 92
        8
176
     1
 66
   257
176
     1
 43
1.0
176
     1
 76
     1
176
     1
 77
     6
176
     1
 78
     2
176
     1
 67
     7
176
     1
 79
     3
176
     1
170
     0
176
     1
171
     0
176
     1
290
     0
176
     1
 93
        5
176
     1
 44
0.0
176
     1
173
     0
176
     1
  0
VISUALSTYLE
  5
638
102
{ACAD_REACTORS
330
2A
102
}
330
2A
100
AcDbVisualStyle
  2
Shades of Gray
 70
    23
177
     2
291
     0
 71
     2
176
     1
 72
     2
176
     1
 73
     3
176
     1
 90
        0
176
     1
 40
0.6
176
     1
 41
30.0
176
     1
 62
     5
 63
     7
421
 16777215
176
     1
 74
     2
176
     1
 91
        2
176
     1
 64
     7
176
     1
 65
     7
176
     1
 75
     1
176
     1
175
     1
176
     1
 42
40.0
176
     1
 92
        8
176
     1
 66
     7
176
     1
 43
1.0
176
     1
 76
     1
176
     1
 77
     6
176
     1
 78
     2
176
     1
 67
     7
176
     1
 79
     3
176
     1
170
     0
176
     1
171
     0
176
     1
290
     0
176
     1
 93
        1
176
     1
 44
0.0
176
     1
173
     0
176
     1
  0
VISUALSTYLE
  5
639
102
{ACAD_REACTORS
330
2A
102
}
330
2A
100
AcDbVisualStyle
  2
Sketchy
 70
    24
177
     2
291
     0
 71
     1
176
     1
 72
     2
176
     1
 73
     2
176
     1
 90
        0
176
     1
 40
0.6
176
     1
 41
30.0
176
     1
 62
     5
 63
     7
421
 16777215
176
     1
 74
     2
176
     1
 91
        2
176
     1
 64
     7
176
     1
 65
     7
176
     1
 75
     1
176
     1
175
     1
176
     1
 42
40.0
176
     1
 92
       11
176
     1
 66
     7
176
     1
 43
1.0
176
     1
 76
     1
176
     1
 77
     6
176
     1
 78
     2
176
     1
 67
     7
176
     1
 79
     6
176
     1
170
     0
176
     1
171
     0
176
     1
290
     0
176
     1
 93
        1
176
     1
 44
0.0
176
     1
173
     0
176
     1
  0
VISUALSTYLE
  5
37
102
{ACAD_REACTORS
330
2A
102
}
330
2A
100
AcDbVisualStyle
  2
Thicken
 70
    13
177
     2
291
     1
 71
     2
176
     1
 72
     2
176
     1
 73
     0
176
     1
 90
        0
176
     1
 40
-0.6
176
     1
 41
-30.0
176
     1
 62
     5
 63
     7
421
 16777215
176
     1
 74
     1
176
     1
 91
        4
176
     1
 64
     7
176
     1
 65
   257
176
     1
 75
     1
176
     1
175
     1
176
     1
 42
1.0
176
     1
 92
       12
176
     1
 66
     7
176
     1
 43
1.0
176
     1
 76
     1
176
     1
 77
     6
176
     1
 78
     2
176
     1
 67
     7
176
     1
 79
     5
176
     1
170
     0
176
     1
171
     0
176
     1
290
     0
176
     1
 93
        1
176
     1
 44
0.0
176
     1
173
     0
176
     1
  0
VISUALSTYLE
  5
633
102
{ACAD_REACTORS
330
2A
102
}
330
2A
100
AcDbVisualStyle
  2
Wireframe
 70
     5
177
     2
291
     0
 71
     0
176
     1
 72
     2
176
     1
 73
     0
176
     1
 90
        0
176
     1
 40
0.6
176
     1
 41
30.0
176
     1
 62
     5
 63
     7
421
 16777215
176
     1
 74
     1
176
     1
 91
        4
176
     1
 64
     7
176
     1
 65
   257
176
     1
 75
     1
176
     1
175
     1
176
     1
 42
1.0
176
     1
 92
        0
176
     1
 66
   257
176
     1
 43
1.0
176
     1
 76
     1
176
     1
 77
     6
176
     1
 78
     2
176
     1
 67
     7
176
     1
 79
     3
176
     1
170
     0
176
     1
171
     0
176
     1
290
     0
176
     1
 93
        1
176
     1
 44
0.0
176
     1
173
     0
176
     1
  0
VISUALSTYLE
  5
63A
102
{ACAD_REACTORS
330
2A
102
}
330
2A
100
AcDbVisualStyle
  2
X-Ray
 70
    25
177
     2
291
     0
 71
     2
176
     1
 72
     2
176
     1
 73
     1
176
     1
 90
        1
176
     1
 40
0.5
176
     1
 41
30.0
176
     1
 62
     5
 63
     7
421
 16777215
176
     1
 74
     1
176
     1
 91
        0
176
     1
 64
     7
176
     1
 65
   257
176
     1
 75
     1
176
     1
175
     1
176
     1
 42
1.0
176
     1
 92
        8
176
     1
 66
     7
176
     1
 43
1.0
176
     1
 76
     1
176
     1
 77
     6
176
     1
 78
     2
176
     1
 67
     7
176
     1
 79
     3
176
     1
170
     0
176
     1
171
     0
176
     1
290
     0
176
     1
 93
       13
176
     1
 44
0.0
176
     1
173
     0
176
     1
  0
DICTIONARYVAR
  5
62
102
{ACAD_REACTORS
330
3D
102
}
330
3D
100
DictionaryVariables
280
     0
  1
1:1
  0
DICTIONARYVAR
  5
3E
102
{ACAD_REACTORS
330
3D
102
}
330
3D
100
DictionaryVariables
280
     0
  1
Standard
  0
DICTIONARYVAR
  5
6F
102
{ACAD_REACTORS
330
3D
102
}
330
3D
100
DictionaryVariables
280
     0
  1
0
  0
DICTIONARYVAR
  5
70
102
{ACAD_REACTORS
330
3D
102
}
330
3D
100
DictionaryVariables
280
     0
  1
0
  0
XRECORD
  5
55B
102
{ACAD_REACTORS
330
55A
102
}
330
55A
100
AcDbXrecord
280
     1
 91
     1023
301

290
     0
302
0
330
10
 90
        8
 62
     7
370
    -3
331
16
  1
Color_7
330
7B
 90
        0
 62
     7
370
    -3
331
16
  1
Color_7
  0
DICTIONARY
  5
78B
330
3C
100
AcDbDictionary
280
     1
281
     1
  3
ACAD_ROUNDTRIP_2008_TABLESTYLE_CELLSTYLEMAP
360
78C
  0
CELLSTYLEMAP
  5
78C
102
{ACAD_REACTORS
330
78B
102
}
330
78B
100
AcDbCellStyleMap
 90
        3
300
CELLSTYLE
  1
TABLEFORMAT_BEGIN
 90
        5
170
     1
 91
        0
 92
    32768
 62
   257
 93
        1
300
CONTENTFORMAT
  1
CONTENTFORMAT_BEGIN
 90
        0
 91
        0
 92
      512
 93
        0
300

 40
0.0
140
1.0
 94
        5
 62
     0
340
11
144
6.0
309
CONTENTFORMAT_END
171
     1
301
MARGIN
  1
CELLMARGIN_BEGIN
 40
0.06
 40
0.06
 40
0.06
 40
0.06
 40
0.18
 40
0.18
309
CELLMARGIN_END
 94
        6
 95
        1
302
GRIDFORMAT
  1
GRIDFORMAT_BEGIN
 90
        0
 91
        1
 62
     0
 92
       -2
340
0
 93
        0
 40
0.045
309
GRIDFORMAT_END
 95
        2
302
GRIDFORMAT
  1
GRIDFORMAT_BEGIN
 90
        0
 91
        1
 62
     0
 92
       -2
340
0
 93
        0
 40
0.045
309
GRIDFORMAT_END
 95
        4
302
GRIDFORMAT
  1
GRIDFORMAT_BEGIN
 90
        0
 91
        1
 62
     0
 92
       -2
340
0
 93
        0
 40
0.045
309
GRIDFORMAT_END
 95
        8
302
GRIDFORMAT
  1
GRIDFORMAT_BEGIN
 90
        0
 91
        1
 62
     0
 92
       -2
340
0
 93
        0
 40
0.045
309
GRIDFORMAT_END
 95
       16
302
GRIDFORMAT
  1
GRIDFORMAT_BEGIN
 90
        0
 91
        1
 62
     0
 92
       -2
340
0
 93
        0
 40
0.045
309
GRIDFORMAT_END
 95
       32
302
GRIDFORMAT
  1
GRIDFORMAT_BEGIN
 90
        0
 91
        1
 62
     0
 92
       -2
340
0
 93
        0
 40
0.045
309
GRIDFORMAT_END
309
TABLEFORMAT_END
  1
CELLSTYLE_BEGIN
 90
        1
 91
        1
300
_TITLE
309
CELLSTYLE_END
300
CELLSTYLE
  1
TABLEFORMAT_BEGIN
 90
        5
170
     1
 91
        0
 92
        0
 62
   257
 93
        1
300
CONTENTFORMAT
  1
CONTENTFORMAT_BEGIN
 90
        0
 91
        0
 92
      512
 93
        0
300

 40
0.0
140
1.0
 94
        5
 62
     0
340
11
144
4.5
309
CONTENTFORMAT_END
171
     1
301
MARGIN
  1
CELLMARGIN_BEGIN
 40
0.06
 40
0.06
 40
0.06
 40
0.06
 40
0.18
 40
0.18
309
CELLMARGIN_END
 94
        6
 95
        1
302
GRIDFORMAT
  1
GRIDFORMAT_BEGIN
 90
        0
 91
        1
 62
     0
 92
       -2
340
0
 93
        0
 40
0.045
309
GRIDFORMAT_END
 95
        2
302
GRIDFORMAT
  1
GRIDFORMAT_BEGIN
 90
        0
 91
        1
 62
     0
 92
       -2
340
0
 93
        0
 40
0.045
309
GRIDFORMAT_END
 95
        4
302
GRIDFORMAT
  1
GRIDFORMAT_BEGIN
 90
        0
 91
        1
 62
     0
 92
       -2
340
0
 93
        0
 40
0.045
309
GRIDFORMAT_END
 95
        8
302
GRIDFORMAT
  1
GRIDFORMAT_BEGIN
 90
        0
 91
        1
 62
     0
 92
       -2
340
0
 93
        0
 40
0.045
309
GRIDFORMAT_END
 95
       16
302
GRIDFORMAT
  1
GRIDFORMAT_BEGIN
 90
        0
 91
        1
 62
     0
 92
       -2
340
0
 93
        0
 40
0.045
309
GRIDFORMAT_END
 95
       32
302
GRIDFORMAT
  1
GRIDFORMAT_BEGIN
 90
        0
 91
        1
 62
     0
 92
       -2
340
0
 93
        0
 40
0.045
309
GRIDFORMAT_END
309
TABLEFORMAT_END
  1
CELLSTYLE_BEGIN
 90
        2
 91
        1
300
_HEADER
309
CELLSTYLE_END
300
CELLSTYLE
  1
TABLEFORMAT_BEGIN
 90
        5
170
     1
 91
        0
 92
        0
 62
   257
 93
        1
300
CONTENTFORMAT
  1
CONTENTFORMAT_BEGIN
 90
        0
 91
        0
 92
      512
 93
        0
300

 40
0.0
140
1.0
 94
        2
 62
     0
340
11
144
4.5
309
CONTENTFORMAT_END
171
     1
301
MARGIN
  1
CELLMARGIN_BEGIN
 40
0.06
 40
0.06
 40
0.06
 40
0.06
 40
0.18
 40
0.18
309
CELLMARGIN_END
 94
        6
 95
        1
302
GRIDFORMAT
  1
GRIDFORMAT_BEGIN
 90
        0
 91
        1
 62
     0
 92
       -2
340
0
 93
        0
 40
0.045
309
GRIDFORMAT_END
 95
        2
302
GRIDFORMAT
  1
GRIDFORMAT_BEGIN
 90
        0
 91
        1
 62
     0
 92
       -2
340
0
 93
        0
 40
0.045
309
GRIDFORMAT_END
 95
        4
302
GRIDFORMAT
  1
GRIDFORMAT_BEGIN
 90
        0
 91
        1
 62
     0
 92
       -2
340
0
 93
        0
 40
0.045
309
GRIDFORMAT_END
 95
        8
302
GRIDFORMAT
  1
GRIDFORMAT_BEGIN
 90
        0
 91
        1
 62
     0
 92
       -2
340
0
 93
        0
 40
0.045
309
GRIDFORMAT_END
 95
       16
302
GRIDFORMAT
  1
GRIDFORMAT_BEGIN
 90
        0
 91
        1
 62
     0
 92
       -2
340
0
 93
        0
 40
0.045
309
GRIDFORMAT_END
 95
       32
302
GRIDFORMAT
  1
GRIDFORMAT_BEGIN
 90
        0
 91
        1
 62
     0
 92
       -2
340
0
 93
        0
 40
0.045
309
GRIDFORMAT_END
309
TABLEFORMAT_END
  1
CELLSTYLE_BEGIN
 90
        3
 91
        2
300
_DATA
309
CELLSTYLE_END
  0
ENDSEC
  0
EOF
